Cifra Club

Killing In The Name

Rage Against The Machine

Cifra: Principal (violão e guitarra)
Selo Cifra Club: esta cifra foi revisada para atender aos critérios oficiais da nossa Equipe de Qualidade.
tom: Dm
Afinação: D A D G B E

[Intro]

[Tab - Intro]

Parte 1 de 4
E|------------------------------------------|
B|-3-----3-----3-----3----------------------|
G|-2-----2-----2-----2----------8~----------|
D|-0-----0-----0-----0----------------------|
A|-0-----0-----0-----0----------------------|
E|-0-----0-----0-----0----------------------|

Parte 2 de 4 - 2x
E|------------------------------------------|
B|------------------------------------------|
G|---------------11-12---------------11-12--|
D|---------11-12---------------11-12--------|
A|------------------------------------------|
E|-0--0--0-------------0--0--0--------------|

E|------------------------------------------|
B|------------------------------------------|
G|---------------11-12---------------11-12br|
D|---------11-12---------------11-12--------|
A|------------------------------------------|
E|-0--0--0-------------0--0--0--------------|

Parte 3 de 4
E|------------------------------------------|
B|------------------------------------------|
G|----------8--8--8-----------8--8--8-------|
D|------------------------------------------|
A|----------6--6--6-----------6--6--6-------|
E|-0--0--0-----------0--0--0----------------|

E|------------------------------------------|
B|------------------------------------------|
G|-----------8--8--8-----------8------------|
D|------------------------------------------|
A|-----------6--6--6-----------6------------|
E|--0--0--0-----------0--0--0---------------|

Parte 4 de 4
E|------------------------------------------|
B|------------------------------------------|
G|------------------------------------------| (4x)
D|---------------3h4------------------------|
A|----3h5-------------5--0--2/3--2----------|
E|-0-------x--x----------0--2/3--2----------|

Killing in the name of!

[Primeira Parte]

[Tab - Primeira Parte]

Parte 1 de 3
  P.M. 
E|------------------------------------------|
B|------------------------------------------|
G|------------------------------------------| (8x)
D|---------------3h4------------------------|
A|----3h5-------------5-----2/3--2----------|
E|-0----------x----------0--2/3--2----------|

Parte 2 de 3
E|------------------------------------------|
B|------------------------------------------|
G|------------------------------------------|
D|-----------9------------8------------7----|
A|----3h5----------3h5----------3h5---------|
E|-0-------x----0-------x----0-------x------|

E|------------------------------------------|
B|------------------------------------------|
G|------------------------------------------|
D|------------------------------------------|
A|----2/3-2/3-2-----------------------------|
E|-0--2/3-2/3-2-----------------------------|

Parte 3 de 3
E|------------------------------------------|
B|------------------------------------------|
G|------------------------------------------|
D|-----------9------------8------------7----|
A|----3h5----------3h5----------3h5---------|
E|-0-------x----0-------x----0-------x------|

  P.M.
E|------------------------------------------|
B|------------------------------------------|
G|------------------------------------------|
D|-5-5-5-5-5-5-5----------------------------|
A|-3-3-3-3-3-3-3----------------------------|
E|------------------------------------------|

Some of those that work forces

Are the same that burn crosses

Some of those that work forces

Are the same that burn crosses

Some of those that work forces

Are the same that burn crosses

Some of those that work forces

Are the same that burn crosses

Killing in the name of

Killing in the name of

[Interlúdio]

[Tab - Interlúdio]

Parte 1 de 3
E|------------------------------------------|
B|------------------------------------------|
G|-7--7-----7-------------------------------| (4x)
D|-7--7-----7-------------------------------|
A|-5--5-----5-------------------------------|
E|------------------------------------------|

Parte 2 de 3
E|------------------------------------------|
B|------------------------------------------|
G|-7--7-x-x-5--x-x-x-x-x-x-x-x-x-x----------| (7x)
D|-7--7-x-x-7--x-x-x-x-x-x-x-x-x-x----------|
A|-5--5-x-x-7--x-x-x-x-x-x-x-x-x-x----------|
E|------------------------------------------|

Parte 3 de 3
E|------------------------------------------|
B|------------------------------------------|
G|-7--7-x-x-5--x-x-7------------------------|
D|-7--7-x-x-7--x-x-7------------------------|
A|-5--5-x-x-7--x-x-5------------------------|
E|------------------------------------------|

And now you do what they told ya

And now you do what they told ya

And now you do what they told ya

And now you do what they told ya

And now you do what they told ya

And now you do what they told ya

And now you do what they told ya

And now you do what they told ya

And now you do what they told ya

And now you do what they told ya

But now you do what they told ya

Well now you do what they told ya

[Refrão]

[Tab - Refrão]

E|------------------------------------------|
B|------------------------------------------|
G|-7-7-x-x--7-x-x-7-x-x---------------------| (8x)
D|-7-7-x-x--7-x-x-7-x-x---------------------|
A|-5-5-x-x--5-x-x-5-x-x-------3-------------|
E|----------------------3--5----------------|

Those who died are justified

For wearing the badge

They're the chosen whites

You justify those that died

By wearing the badge

They're the chosen whites

Those who died are justified

For wearing the badge

They're the chosen whites

You justify those that died

By wearing the badge

They're the chosen whites

[Segunda Parte]

[Tab - Segunda Parte]

Parte 1 de 3 
  P.M. 
E|------------------------------------------|
B|------------------------------------------|
G|------------------------------------------| (3x)
D|---------------3h4------------------------|
A|----3h5-------------5-----2/3--2----------|
E|-0----------x----------0--2/3--2----------|

Parte 1 de 3 - Variação
  P.M.
E|------------------------------------------|
B|--------------------------------6~--------|
G|--------------------------5-6-7-----------|
D|---------------3h4--5-6-7-----------------|
A|----3h5-----------------------------------|
E|-0----------x-----------------------------|

Parte 1 de 3 
  P.M. 
E|------------------------------------------|
B|------------------------------------------|
G|------------------------------------------| (4x)
D|---------------3h4------------------------|
A|----3h5-------------5-----2/3--2----------|
E|-0----------x----------0--2/3--2----------|

Parte 2 de 3
E|------------------------------------------|
B|------------------------------------------|
G|------------------------------------------|
D|-----------9------------8------------7----|
A|----3h5----------3h5----------3h5---------|
E|-0-------x----0-------x----0-------x------|

E|------------------------------------------|
B|------------------------------------------|
G|------------------------------------------|
D|------------------------------------------|
A|----2/3-2/3-2-----------------------------|
E|-0--2/3-2/3-2-----------------------------|

Parte 3 de 3
E|------------------------------------------|
B|------------------------------------------|
G|------------------------------------------|
D|-----------9------------8------------7----|
A|----3h5----------3h5----------3h5---------|
E|-0-------x----0-------x----0-------x------|

  P.M.
E|------------------------------------------|
B|------------------------------------------|
G|------------------------------------------|
D|-5-5-5-5-5-5-5----------------------------|
A|-3-3-3-3-3-3-3----------------------------|
E|------------------------------------------|

Some of those that work forces

Are the same that burn crosses

Some of those that work forces

Are the same that burn crosses

Some of those that work forces

Are the same that burn crosses

Some of those that work forces

Are the same that burn crosses

Killing in the name of

Killing in the name of

[Interlúdio]

And now you do what they told ya

And now you do what they told ya

And now you do what they told ya

And now you do what they told ya

And now you do what they told ya

(Now you're under control)

And now you do what they told ya

(Now you're under control)

And now you do what they told ya

(Now you're under control)

And now you do what they told ya

(Now you're under control)

And now you do what they told ya

(Now you're under control)

And now you do what they told ya

(Now you're under control)

And now you do what they told ya

(Now you're under control)

And now you do what they told ya

[Refrão]

Those who died are justified

For wearing the badge

They're the chosen whites

You justify those that died

By wearing the badge

They're the chosen whites

Those who died are justified

For wearing the badge

They're the chosen whites

You justify those that died

By wearing the badge

They're the chosen whites

Come on

[Solo]

[Tab - Solo]
 
Parte 1 de 5
   +  -  +  -  +  -  +  -  + -   +  - +  
E|------------------------------------------|
B|-13...-10...------------------------------|
G|-------------12...-10...------------12/14~|
D|-------------------------12...-10...------|
A|------------------------------------------|
E|------------------------------------------|

Parte 2 de 5
   +  -  +  -  +  -  +  -  + -   +  -  +  
E|------------------------------------------|
B|-13...-10...------------------------------|
G|-------------12...-10...------------------|
D|------------------------12...-10...-10/12~|
A|------------------------------------------|
E|------------------------------------------|

Parte 3 de 5
   -     +      -          +      -
E|------------------------------------------|
B|-10h13p10h13p...\-/10h13p10h13p...\-------|
G|------------------------------------------|
D|------------------------------------------|
A|------------------------------------------|
E|------------------------------------------|

Parte 4 de 5
   -     +      -          +      -
E|------------------------------------------|
B|------------------------------------------|
G|------------------------------------------|
D|------------------------------------------|
A|-/10h12p10h12p...\-/10h12p10h12...\-------|
E|------------------------------------------|

Parte 5 de 5
   -  +    - +     - +
E|------------------------------------------|
B|-/15~~---/17~~----------------------------|
G|-----------------/13~~--------------------|
D|------------------------------------------|
A|------------------------------------------|
E|------------------------------------------|

[Passagem Pós-Solo]

[Tab - Passagem Pós Solo]

Parte 1 de 2
E|------------------------------------------|
B|------------------------------------------|
G|-7...-9...-10...-12...-14...-15...-17...--|
D|------------------------------------------|
A|-5...-7...-8...--10...-12...-13...-15...--|
E|------------------------------------------|

E|------------------------------------------|
B|------------------------------------------|
G|-/19---\--/19---\--/19---\--/19---\-------|
D|------------------------------------------|
A|-/17---\--/17---\--/17---\--/17---\-------|
E|------------------------------------------|

Fuck you, I won't do what they tell me
Fuck you, I won't do what they tell me

Fuck you, I won't do what they tell me

Fuck you, I won't do what they tell me

Fuck you, I won't do what they tell me

Fuck you, I won't do what they tell me

Fuck you, I won't do what they tell me

Fuck you, I won't do what they tell me

[Terceira Parte]

[Tab - Terceira Parte]

E|------------------------------------------|
B|------------------------------------------|
G|-7-7-x-x--7-x-x-7-x-x---------------------| (8x)
D|-7-7-x-x--7-x-x-7-x-x---------------------|
A|-5-5-x-x--5-x-x-5-x-x-------3-------------|
E|----------------------3--5----------------|

Fuck you, I won't do what they tell me

Fuck you, I won't do what they tell me

Fuck you, I won't do what they tell me

Fuck you, I won't do what they tell me

Fuck you, I won't do what they tell me

Fuck you, I won't do what they tell me

Fuck you, I won't do what they tell me

Fuck you, I won't do what they tell me

[Final]

[Tab - Final]

Parte 1 de 2
E|--------------------------------------------|
B|-10-10------10-10-10-10------10-10-10-10----|
G|-10-10------10-10-10-10------10-10-10-10----| (4x)
D|-10-10------10-10-10-10------10-10-10-10----|
A|-------x-12-------------x-12-------------x-x|
E|-------x-12-------------x-12-------------x-x|

Parte 2 de 2
E|------------------------------------------|
B|------------------------------------------|
G|-7---------------8--8--8~~\---------------|
D|-7----------------------------------------|
A|-5---------------6--6--6~~\---------------|
E|--------0--0--0---------------------------|

Motherfucker
Outros vídeos desta música
    382.257 exibições
      • ½ Tom
      • Am
      • Bbm
      • Bm
      • Cm
      • C#m
      • Dm
      • Ebm
      • Em
      • Fm
      • F#m
      • Gm
      • G#m
    • Adicionar à lista

    Afinação da cifra

    Afinador online

      0 comentários

      Ver todos os comentários

      Entre para o Cifra Club PRO

      Tenha acesso a benefícios exclusivos no App e no Site

      • Chega de anúncios

      • Badges exclusivas

      • Mais recursos no app do Afinador

      • Atendimento Prioritário

      • Aumente seu limite de lista

      • Ajude a produzir mais conteúdo

      Capítulos
      • Início
      • Afinação
      • Tocando a música
      • Configuração dos Efeitos
      • Tocando Introdução
      • Ensinando Introdução - Parte 1
      • Ensinando Introdução - Parte 2
      • Ensinando Introdução - Parte 3
      • Ensinando Introdução - Parte 4
      • Tocando Primeira Parte
      • Ensinando Primeira Parte
      • Tocando Primeiro Intterlúdio
      • Ensinando Primeiro Interlúdio
      • Tocando Primeiro Refrão
      • Ensinando Primeiro Refrão
      • Tocando Segunda Parte
      • Ensinando Segunda Parte
      • Tocando Segundo Refrão e Solo
      • Ensinando Solo
      • Tocando Passagem Pós-Solo
      • Ensinando Passagem Pós-Solo
      • Tocando Terceira Parte e Final
      • Ensinando Final
      • Encerramento

      Cifra Club Pro

      Aproveite o Cifra Club com benefícios exclusivos e sem anúncios
      Cifra Club Pro
      Aproveite o Cifra Club com benefícios exclusivos e sem anúncios
      Ops (: Contenido disponible sólo en portugués.
      OK