Cifra Club

Aprenda

Bullet In The Head

Rage Against The Machine

Cifra: Principal (violão e guitarra)
Tom: D
Esse  começo  é  tocado no baixo
E|----------------------------------------------------------
B|----------------------------------------------------------
G|---------------------7------------------------------------
D|---------------------6------------------------------------
A|--7-7---7-7-7---------------------------------------------
E|----------------0-----------------------------------------

|---------------------------------------------------------|
|---------------------------------------------------------|
|---------------------------------------------------------|
|--------------------------------------2~-----------------|
|-2---5---7------------9---5---7---2----------------------|
|-0---3---5------------7---3---5---0----------------------|
just victims of the in-house drive by
they say jump you say how high



Then comes a short lead break:


E|-12-0-0-10-0-0-8-0-0-7-0-0-5-0-3-0-0-0-0-0-0-0-0-0---repeat----
B|---------------------------------------------------------------
G|---------------------------------------------------------------
D|---------------------------------------------------------------
A|---------------------------------------------------------------
E|---------------------------------------------------------------


E|-15-----14----13----12----11---15----14----13----12----11------
B|---14-----13----12----11----10---14----13----12----11----10----
G|-----13-----12----11----10----9----13----12----11----10----9---
D|---------------------------------------------------------------
A|---------------------------------------------------------------
E|---------------------------------------------------------------

not sure about the last 2 notes above


E|--12-12-12-12-12-12-12-12---------------12-12-12-12-12-12-12-12
B|--15b---------15b---------15b-r-12------15b---------15b--------
G|----------------------------------14-12------------------------
D|---------------------------------------------------------------
A|---------------------------------------------------------------
E|---------------------------------------------------------------



I haven't gota clue about the next verse, but anyway, now for the
killer main riff


E|---------------------------------------------------------------
B|---------------------------------------------------------------
G|---------------------------------------------------------------
D|--9-9-9-9-9-7--------------------------------------------------
A|--7-7-7-7-7-5-7-8-7---5-7-5------------------------------------
E|--------------5-6-5-0-3-5-3-0-0-0------------------------------


-Lyrics-

This time the bullet cold rocked ya
A yellow ribbon instead of a swastika
Nothin' proper about ya properganda
Fools follow rules when the set commands ya
They said it was blue
When the blood was red
That's how you got a bullet blasted through ya head

Blasted through ya head
Blasted through ya head

I give a shout out to the living dead
Who stood and watched as the feds cold centralized
So serene on the screen
You was mesmerized
Cellular phones soundin' a death tone
Corporations cold
Turn ya to stone before ya realize

They load th clip in omnicolour
They pack the 9, they fire it at prime time
Sleeping gas, every home was like Alcatraz
And mutha fuckas loast their minds

Just victims of the in-house drive-by
They say jump you say how high
They load the clip in omnicolour
They pack the 9, they fire it at prime time
Sleeping gas, every home was like Alcatraz
And mutha fuckas lost their minds

No escape from the mass mind rape
Play it again jack and then rewind the tape
Play it again and again and again
Until ya mind gets locked in
Believin' all the lies that they're tellin' ya
Buying all the products that they're sellin' ya
They say jump
Ya say how high
Ya brain dead
Ya got a fuckin' bullet in ya head

Just victims of the in-house drive-by
they say jump you say how high

Ya standin' in line
Believin' the lies
Bowin' down to the flag
Ya gotta bullet in ya head
Composição de Rage Against the Machine / Zack de la Rocha
37.556 exibições
    • ½ Tom
    • A
    • Bb
    • B
    • C
    • Db
    • D
    • Eb
    • E
    • F
    • F#
    • G
    • Ab
  • Adicionar à lista

    0 comentários

    Mostrar mais comentários

    Conseguiu tocar?

    9 Tocaram 0 Ainda não

    Grave um vídeo tocando Bullet In The Head e mande pra gente!

    00:00 / 00:00
    outros vídeos desta música
    repetir qualidade Automático
    Outros vídeos desta música
    00:00 / 00:00
    Automático
    OK