Cifra Club

Aprenda

Bullet In The Head

Rage Against The Machine

Cifra: Versão 5 (violão e guitarra)
tom: C
Hey.... This song fucking rocks!!!! This tab is as correct as it gets, pretty
easy actually, though it's quite fast sometimes ;) the only thing I'm not sure
of, is the solo. There's a lot of effects, so it's difficult to hear. But this
sounded good to me, soooo...... and check out the lyrics! 
Enjoy

Riff A (bass):
E----------------------
A----------------------
D--------------------7-
G--------------------6-
B-7--7---7--7--7-------
E------------------0---

Guitar fill 1:                   Fill 2:
E--0---0---0--0--0---0---0--|    E----------------|
A--0---0---0--0--0---0---0--|    A----------------|
D--0---0---0--0--0---0---0--|    D---7b---7b------|
G--0---0---0--0--0---0---0--|    G----------------|
B--0---0---0--0--0---0---0--|    B----------------|
E--0---0---0--0--0---0---0--| x4 E----------------| x4

Vers 1:
(fill 1)This time the bullet cold rocked ya. A yellow ribbon instead of the
swastika. Nothin' proper about your propaganda, fools follow rules when the sets
command ya! They sat it was blue when the blood was red, that's how you get a
bullet blasted through ya head, blasted through ya head, blasted through ya head.
 give a shoutout to the living dead, who stood and watched as the feds cold
centralized, so serene on the screen, you was mesmerized. Cellular phones
soundin' a death tone, corporations cold turn ya stone before ya realize.

(fill 2)They load the clip in omnicolor. Said, they pack the nine, they fire it
at the primetime. The sleeping gas, ev'ry home was like Alcatraz. And muthafuckas
lost their minds!

Chorus: 
Just victims of the in-house driveby, they say jump you say how high x2
E---------------------------------------------------------------------------
A---------------------------------------------------------------------------
D---------------------------------------------------------------------------
G---------------------------------------------------------------------------
B---0---------------------------0-------------0--------------------------0--
E---2---3---5-------7---3---5---2------1b-----2---3---5------7---3---5---2--

Solo (with wah-wah):
E--12--0--0--10--0--0--8--0--0--7--0--0--5--0--3--0--0--0--0--0--0--0--0--0-
A---------------------------------------------------------------------------
D---------------------------------------------------------------------------
G---------------------------------------------------------------------------
B---------------------------------------------------------------------------
E--12--0--0--10--0--0--8--0--0--7--0--0--5--0--3--0--0--0--0--0--0--0--0--0-

E--12--0--0--10--0--0--8--0--0--7--0--0--5--0--3--0--0--0--0--0--0--0--0--0-
A---------------------------------------------------------------------------
D---------------------------------------------------------------------------
G---------------------------------------------------------------------------
B---------------------------------------------------------------------------
E--12--0--0--10--0--0--8--0--0--7--0--0--5--0--3--0--0--0--0--0--0--0--0--0-

E-15-------14-------13-------12------11------15------14-------13------12----
A----14-------13-------12-------11------10------14------13-------12------11-
D-------12-------11-------10-------9-------8-------12------11-------10-----9
G---------------------------------------------------------------------------
B---------------------------------------------------------------------------
E---------------------------------------------------------------------------

E-----------------------------------------15b---12----------|
A---15b--15b--15b-12---------15b--15b-----------------------|
D--------------------14--12------------12-------------------|
G-----------------------------------------------------------|
B-----------------------------------------------------------|
E-----------------------------------------------------------|

Chorus

Verse 2:
Check-a check-a check it out!
They load the clip in omnicolor, said they pack the nine, they fire it at the
primetime! The sleeping gas, ev'ry home was like Alcatraz, and muthafuckas lost
their minds. No escape from the minds rape, play it again Jack and rewind the
tape, and then play it again and again and again until ya mind is locked in.
Believing all the lies that they're tellin' ya, buying all the products that
they're sellin' ya. They say jump you say how high, you're brain dead, ya got a
fucking bullet in the head!

Chorus

C-verse:
E----------------------------------------------------|
A----------------------------------------------------|
D----------------------------------------------------|
G------------------7---------------------------------|
B---7--7--7--7--7--5--7--8--7-----5--7--5------------|
E---------------------5--6--5--0--3--5--3--0--0--0---| x4

C-verse*:
E----------------------------------------------------|
A----------------------------------------------------|
D----------------------------------------------------|
G---9--9--9--9--9--7---------------------------------|
B---7--7--7--7--7--5--7--8--7-----5--7--5--2--2--2---|
E---------------------5--6--5--0--3--5--3--0--0--0---| x8 (bass continues)

Ya standin' in line, believing the lies, ya bowin' down to the flag, ya got a
bullet in the head. Ya standin' in line, believing the lies, ya bowin' down to
the flag, ya got a bullet in the head. 

C-verse (again): 
 A bullet in the head (whispered)x8
E----------------------------------------------------|
A----------------------------------------------------|
D----------------------------------------------------|
G------------------7---------------------------------|
B---7--7--7--7--7--5--7--8--7-----5--7--5------------|
E---------------------5--6--5--0--3--5--3--0--0--0---| x8

C-verse*:
 A bullet in the head! (shouted) you got a bullet in ya fucking head!!!
E----------------------------------------------------|
A----------------------------------------------------|
D----------------------------------------------------|
G---9--9--9--9--9--7---------------------------------|
B---7--7--7--7--7--5--7--8--7-----5--7--5--2--2--2---|
E---------------------5--6--5--0--3--5--3--0--0--0---| x8

outro:
E-----------------------------------------------|
A-----------------------------------------------|
D---9--9-9---------------9--9-9-----------------|
G---9--9-9---------------9--9-9-----------------|
B---7--7-7---------------7--7-7-----------------|
E----------0--0--0--0-0----------0--0--0--0--0--| x2

E----------------------------------------------------------------------------
A----------------------------------------------------------------------------
D----------------------------------------------------------------------------
G----------------------------------------------------------------------------
B-------------------------------------------------------------------2--------
E---0-0-0-0-0-0-0-0-0-0-0-0-0-0-0-0-0-0-0-0-0-0-0-0-0-0-0-0-0-0-0-0-0--------

Feel free to mail me with anything you want, corrections, comments or something
else! N*ekom
Composição de Rage Against the Machine / Zack de la Rocha
164 exibições
    • ½ Tom
    • A
    • Bb
    • B
    • C
    • Db
    • D
    • Eb
    • E
    • F
    • F#
    • G
    • Ab
  • Adicionar à lista

    0 comentários

    Ver todos os comentários

    Conseguiu tocar?

    0 Tocaram 0 Ainda não

    Grave um vídeo tocando Bullet In The Head e nos envie!

    00:00 / 00:00
    Outros vídeos desta música
    Repetir Qualidade Automático
    Outros vídeos desta música
    00:00 / 00:00
    Automático

    Cifra Club Pro

    Aproveite o Cifra Club com benefícios exclusivos e sem anúncios
    Cifra Club Pro
    Aproveite o Cifra Club com benefícios exclusivos e sem anúncios
    OK