Cifra Club

Aprenda

Bullet In The Head

Rage Against The Machine

Tab de baixo: Principal
[Verso]

G|-----------------7--|
D|-----------------6--|
A|--7-7--7-7-7--------|
E|--------------0-----|

G|------------------6/7--|
D|------------------5/6--|
A|--7-7---7-7-7----------|
E|---------------0-------|

G|----------------------7~9---|
D|------------------7~9-------|
A|--7-7---7-7-7---------------|
E|---------------0------------|

G|-------------------7--|
D|-------------------6--|
A|--7-7-----------------|
E|----------------0-----|

[Refrão]

G|-----------------------------------|
D|-----------------------------------|
A|----------0--------2-------0-------|
E|--0---3----------------3-------0---|

[Final]

G|-----------------------------------|
D|-----------------------------------|
A|--7-7-7-7-7-5----------------------|
E|--------------5-6-5-0-3-5-3-0-0-0--|
                                         
G|------------------|
D|------------------|
A|--7-7-------------|
E|------0-0-0-0-----|
Composição de Rage Against the Machine / Zack de la Rocha
Colaboração e revisão:
  • Gabriel Leite
18.275 exibições

0 comentários

Ver todos os comentários

Conseguiu tocar?

9 Tocaram 0 Ainda não

Grave um vídeo tocando Bullet In The Head e nos envie!

00:00 / 00:00
Outros vídeos desta música
Repetir Qualidade Automático
Outros vídeos desta música
00:00 / 00:00
Automático

Cifra Club Pro

Aproveite o Cifra Club com benefícios exclusivos e sem anúncios
Cifra Club Pro
Aproveite o Cifra Club com benefícios exclusivos e sem anúncios
OK