Cifra Club

Aprenda

Bullet In The Head

Rage Against The Machine

Tab de baixo: Versão 5
or two and ill re tab the song with a bass thats in working condition
        ~bullet in the head~
Tabbed By : intermisine
e-mail: *

Tuning:standard


verse
G|-------------6-------------------------------------------------------------|
D|-------------6-------------------------------------------------------------|
A|4--4--4-4-4----------------------------------------------------------------|
E|-----------6---------------------------------------------------------------|


the bass fills are scattered through out the song in place of the bass
line above, youll just have to feel when to play it. 

     bass fill 1           bass fill 2
G|-------------6'--|    |-----------------4-6--|                             |
D|-------------6'--|    |-------------4-6------|                             |
A|4--4--4-4-4------|    |4--4--4-4-4-----------|                             |
E|-----------6-----|    |-----------6----------|                             |

chorus: easy..but rockin!
G|---------------------------------------------------------------------------|
D|---------------------------------------------------------------------------|
A|2--4--6--------7--4--6--2--------------------------------------------------|
E|---------------------------------------------------------------------------|

heavy part: if the part on the E string seems a bit off then just mess with
it but im almost positive thats right.
G|---------------------------------------------------------------------------|
D|---------------------------------------------------------------------------|
A|6-6-6-6-4-2-4-2------------------------------------------------------------|
E|---------------4-2-4-0-2-0-0-0---------------------------------------------|

pre outro
G|---------------------------------------------------------------------------|
D|-------x-x-x-x-------------------------------------------------------------|
A|6--6-6-x-x-x-x-------------------------------------------------------------|
E|---------------------------------------------------------------------------|


outro: repeat untill the end.
G|-x--x----------------------------------------------------------------------|
D|-x--x----------------------------------------------------------------------|
A|(7)(7)---------------------------------------------------------------------|
E|---------------------------------------------------------------------------|


X -palm mute
' -pull off just enough to stop the notes right after you hit
()-optional, the note will work there but if you dont believe me then hey! dont play it!

enjoy and rate!
Composição de Rage Against the Machine / Zack de la Rocha
176 exibições

0 comentários

Ver todos os comentários

Conseguiu tocar?

0 Tocaram 0 Ainda não

Grave um vídeo tocando Bullet In The Head e nos envie!

00:00 / 00:00
Outros vídeos desta música
Repetir Qualidade Automático
Outros vídeos desta música
00:00 / 00:00
Automático

Cifra Club Pro

Aproveite o Cifra Club com benefícios exclusivos e sem anúncios
Cifra Club Pro
Aproveite o Cifra Club com benefícios exclusivos e sem anúncios
OK