Cifra Club

Aprenda

Bullet In The Head

Rage Against The Machine

Cifra: Versão 6 (violão e guitarra)
tom: C
I decided to rewrite this tab because, after looking at all the otheres, I couldn't find
where the Fills that Morello plays in the verses were tabbed to sound even anything
what they do in the song. I think mine is a little closer than whats already here, but
still not perfect - it would be very hard to know work out how it's done without asking
himself.

Verse Fill 1) On this fill, make sure to play the downwards slides very slowly. I
put the fret to stop playing them on on this tab - you'll have to judge that yourself. It's
about the timing of where the note stops than what fret you get down to. Also, the bends
the first three parts (and the first two bends on the fourth part) are very slight, so
overplay them. Where, in the fourth part, the bends are in brackets, it means that the
has already been bent to this note. You hold it here from the last bend. The distortion
to be up high, and, when I played this, I turned off the tone on the pickup I was using 
get a better sound.
e-12b--12b--12b-12b-12b-12b/|-12b--12b--12b-12b-12b-12b/|
B-15b--15b--15b-15b-15b-15b/|-15b--15b--15b-15b-15b-15b/|
G---------------------------|---------------------------|
D---------------------------|---------------------------|
A---------------------------|---------------------------|
E---------------------------|---------------------------|

e-10b--10b--10b-10b-10b-10b/|-12b--12b--12b13-12(b13)-12(b13)-12(b13)b14/|
B-13b--13b--13b-13b-13b-13b/|-15b--15b--15b16-15(b16)-15(b16)-15(b16)b17/|
G---------------------------|--------------------------------------------|
D---------------------------|--------------------------------------------|
A---------------------------|--------------------------------------------|
E---------------------------|--------------------------------------------|

Verse Fill 2) I couldn't quite figure out how to get the chirping sounds that Morello
in this fill. In other tabs, all I've seen is bending notes. They were all very low
considering how high the noise that Morello makes is. I think it sounds more like the
if you play the hammers that I've put in my tab, but you have to make sure to play them very
though, as the string is not already vibrating as it would be when you usually hammer
I found it was a good idea to play them with my right hand, and use my left hand to deaden
string after playing the note, because it sounds pretty awful if you accidentaly get an 
string at the end of a note. On the bends, you have to play them up almost to
fret, and then back a little but not all the way.
e----------|----------|----------|----------|
B----------|----------|----------|----------|
G-h19b-h19b|-h19b-h19b|-h19b-h19b|-h19b-h19b|
D----------|----------|----------|----------|
A----------|----------|----------|----------|
E----------|----------|----------|----------|

Chorus) On the bent note on 1st fret, I fretted it with my little finger, and used my
finger and first two fingers to bend the string before the nut, as you can bend it more
than on first fret, where there isn't much room to bend the string.
e------|--------|---|------|--------|
B------|--------|---|------|--------|
G------|--------|---|------|--------|
D------|--------|---|------|--------|
A------|--------|---|------|--------|
E-0-3-5|-7-3-5-0|-1b|-0-3-5|-7-3-5-0|

Solo Part 1) Here you slide your finger down as you play the deadened notes, playing
the top and bottom strings by finger picking. It's almost like a continous slide from 12 to
but you have to stop at the marked frets to play the notes. On the last four deadened
bring you finger back up to about 11th fret, and slowly slide it up so that you play
harmonic on 12th fret on the last three.
e-12xx10xx8xx7xx5x3x2xxxxx|-12xx10xx8xx7xx5x3x2xxxxx|
B-------------------------------------|-------------------------------------|
G-------------------------------------|-------------------------------------|
D-------------------------------------|-------------------------------------|
A-------------------------------------|-------------------------------------|
E-12xx10xx8xx7xx5x3x2xxxxx|-12xx10xx8xx7xx5x3x2xxxxx|

Solo Part 2) Don't let any of the notes ring apart from the last three in the first part
so you can slide them back up to the top - and obviously the last one so you can play
vibrato.
e-15----14----13----12---11---/|-15----14----13----12----|
B---14----13----12----11---10-/|---14----13----12----11--|
G-----12----11----10----9----8/|-----12----11----10----9~|
D------------------------------|-------------------------|
A------------------------------|-------------------------|
E------------------------------|-------------------------|

Solo Part 3)
e------------------------|---------15-17b18---|
B-17b-17b-17-15----------|-17b-17b----------17|
G---------------16-14----|--------------------|
D---------------------17b|--------------------|
A------------------------|--------------------|
E------------------------|--------------------|

Chorus)
e------|--------|---|------|--------|--|
B------|--------|---|------|--------|--|
G------|--------|---|------|--------|--|
D------|--------|---|------|--------|--|
A------|--------|---|------|--------|--|
E-0-3-5|-7-3-5-0|-1b|-0-3-5|-7-3-5-0|-0|

Verse Fill 1)
e-12b--12b--12b-12b-12b-12b/|-12b--12b--12b-12b-12b-12b/|
B-15b--15b--15b-15b-15b-15b/|-15b--15b--15b-15b-15b-15b/|
G---------------------------|---------------------------|
D---------------------------|---------------------------|
A---------------------------|---------------------------|
E---------------------------|---------------------------|

e-10b--10b--10b-10b-10b-10b/|-12b--12b--12b13-12(b13)-12(b13)-12(b13)b14/|
B-13b--13b--13b-13b-13b-13b/|-15b--15b--15b16-15(b16)-15(b16)-15(b16)b17/|
G---------------------------|--------------------------------------------|
D---------------------------|--------------------------------------------|
A---------------------------|--------------------------------------------|
E---------------------------|--------------------------------------------|

Chorus)
e------|--------|---|------|--------|
B------|--------|---|------|--------|
G------|--------|---|------|--------|
D------|--------|---|------|--------|
A------|--------|---|------|--------|
E-0-3-5|-7-3-5-0|-1b|-0-3-5|-7-3-5-0|

Build Up) Quietly, getting steadily louder.
e-----------------|-----------------|-----------------|-------------|
B-----------------|-----------------|-----------------|-------------|
G-----------------|-----------------|-----------------|-------------|
D-----------------|-----------------|-----------------|----------222|
A-777775----------|-777775----------|-777775----------|-777775---222|
E-------5650353000|-------5650353000|-------5650353000|-------565000|

e-----------------|-----------------|-----------------|-----------------|
B-----------------|-----------------|-----------------|-----------------|
G-----------------|-----------------|-----------------|-----------------|
D-99999-----------|-99999-----------|-99999-----------|-99999-----------|
A-777775----------|-777775----------|-777775----------|-777775----------|
E-------5650353000|-------5650353000|-------5650353000|-------5650353000|

e-----------------|-----------------|-----------------|-----------------|
B-----------------|-----------------|-----------------|-----------------|
G-----------------|-----------------|-----------------|-----------------|
D-99999-----------|-99999-----------|-99999-----------|-99999-----------|
A-777775----------|-777775----------|-777775----------|-777775----------|
E-------5650353000|-------5650353000|-------5650353000|-------5650353000|
    *pickscrape
e--|-------|
B--|-------|
G--|-------|
D--|-X~-~-~|
A--|-X~-~-~|
E-0|-X~-~-~|

e-----------------|-----------------|-----------------|-----------------|
B-----------------|-----------------|-----------------|-----------------|
G-----------------|-----------------|-----------------|-----------------|
D-----------------|-----------------|-----------------|-----------------|
A-777775----------|-777775----------|-777775----------|-777775----------|
E-------5650353000|-------5650353000|-------5650353000|-------5650353000|

e-----------------|-----------------|-----------------|-----------------|
B-----------------|-----------------|-----------------|-----------------|
G-----------------|-----------------|-----------------|-----------------|
D-----------------|-----------------|-----------------|-----------------|
A-777775----------|-777775----------|-777775----------|-777775----------|
E-------5650353000|-------5650353000|-------5650353000|-------5650353000|

e-----------------|-----------------|-----------------|-----------------|
B-----------------|-----------------|-----------------|-----------------|
G-99999-----------|-99999-----------|-99999-----------|-99999-----------|
D-9999907870565000|-9999907870565000|-9999907870565000|-9999907870565000|
A-7777707870565000|-7777707870565000|-7777707870565000|-7777707870565000|
E------05650353000|------05650353000|------05650353000|------05650353000|

e-----------------|-----------------|-----------------|-----------------|
B-----------------|-----------------|-----------------|-----------------|
G-99999-----------|-99999-----------|-99999-----------|-99999-----------|
D-9999907870565000|-9999907870565000|-9999907870565000|-9999907870565000|
A-7777707870565000|-7777707870565000|-7777707870565000|-7777707870565000|
E------05650353000|------05650353000|------05650353000|------05650353000|

Outro)
e-----|-----|-----|-----|-----|-----|-----|-----|--|
B-----|-----|-----|-----|-----|-----|-----|-----|--|
G-9-99|-9-99|-9-99|-9-99|-9-99|-9-99|-9-99|-9-99|-9|
D-9-99|-9-99|-9-99|-9-99|-9-99|-9-99|-9-99|-9-99|-9|
A-7-77|-7-77|-7-77|-7-77|-7-77|-7-77|-7-77|-7-77|-7|
E-0-00|-0-00|-0-00|-0-00|-0-00|-0-00|-0-00|-0-00|-0|
Composição de Rage Against the Machine / Zack de la Rocha
129 exibições
    • ½ Tom
    • A
    • Bb
    • B
    • C
    • Db
    • D
    • Eb
    • E
    • F
    • F#
    • G
    • Ab
  • Adicionar à lista

    0 comentários

    Ver todos os comentários

    Conseguiu tocar?

    0 Tocaram 0 Ainda não

    Grave um vídeo tocando Bullet In The Head e nos envie!

    00:00 / 00:00
    Outros vídeos desta música
    Repetir Qualidade Automático
    Outros vídeos desta música
    00:00 / 00:00
    Automático

    Cifra Club Pro

    Aproveite o Cifra Club com benefícios exclusivos e sem anúncios
    Cifra Club Pro
    Aproveite o Cifra Club com benefícios exclusivos e sem anúncios
    OK