Cifra Club

Aprenda

Bullet In The Head

Rage Against The Machine

Tab de baixo: Versão 8
Rage Against The Machine por Gustavo Amaro
Video: https://www.youtube.com/watch?v=oVmCTm-SVN0


   00:00                                          12x  00:37
G||-----------------------|-----------------7-----||----------------------|-----------------7----|
D||*----------------------|-----------------6----*||----------------------|-----------------6----|
A||---7----7----x------7--|--7----7---------------||--7----7----x------7--|--7----7--------------|
E||*----------------------|------------0---------*||----------------------|------------0---------|
B||-----------------------|-----------------------||----------------------|----------------------|
   
   
----------------------|---------------7s--8----|----------------------|-----------------7----|
----------------------|---------------6s--7----|----------------------|-----------------6----|
--7----7----x------7--|--7----7----------------|--7----7----x------7--|--7----7--------------|
----------------------|------------0-----------|----------------------|------------0---------|
----------------------|------------------------|----------------------|----------------------|

                                                00:49                                          
----------------------|------------------7--9--|----------------------|-----------------7----|
----------------------|------------7--9--------|----------------------|-----------------6----|
--7----7----x------7--|--7---------------------|--7----7----x------7--|--7----7--------------|
----------------------|-------0----------------|----------------------|------------0---------|
----------------------|------------------------|----------------------|----------------------|
  
  
----------------------|---------------7s--8----|----------------------|-----------------7----|
----------------------|---------------6s--7----|----------------------|-----------------6----|
--7----7----x------7--|--7----7----------------|--7----7----x------7--|--7----7--------------|
----------------------|------------0-----------|----------------------|------------0---------|
----------------------|------------------------|----------------------|----------------------|

                                               00:59                                    
----------------------|-----------------7----|---------------------|-------------------|
----------------------|-----------------6----|---------------------|-------------------|
--7----7----x------7--|--7----7--------------|---------------------|-------------------|
----------------------|------------0---------|---------3------5----|--L----------------|
----------------------|----------------------|--5------------------|-------------------|

   
---------------------|-------------------|---------------------|---------------------|
---------------------|-------------------|---------------------|---------------------|
---------------------|-------------------|---------------------|---------------------|
--7------3------5----|-------------------|---------------------|---------3------5----|
---------------------|--5----------------|-------5b------------|--5------------------|

                                                                                   01:20                 
-------------------|---------------------|-------------------|-------------------|----------------------|
-------------------|---------------------|-------------------|-------------------|----------------------|
-------------------|---------------------|-------------------|-------------------|--7----7----x------7--|
--L----------------|--7------3------5----|-------------------|-------------------|----------------------|
-------------------|---------------------|--5----------------|-------------------|----------------------|


-----------------7----|----------------------|-----------------7----|----------------------|
-----------------6----|----------------------|-----------------6----|----------------------|
--7----7--------------|--7----7----x------7--|--7----7--------------|--7----7----x------7--|
------------0---------|----------------------|------------0---------|----------------------|
----------------------|----------------------|----------------------|----------------------|


-----------------7----|----------------------|---------------7s--8----|----------------------|
-----------------6----|----------------------|---------------6s--7----|----------------------|
--7----7--------------|--7----7----x------7--|--7----7----------------|--7----7----x------7--|
------------0---------|----------------------|------------0-----------|----------------------|
----------------------|----------------------|------------------------|----------------------|


-----------------7----|----------------------|-----------------7----|----------------------|
-----------------6----|----------------------|-----------------6----|----------------------|
--7----7--------------|--7----7----x------7--|--7----7--------------|--7----7----x------7--|
------------0---------|----------------------|------------0---------|----------------------|
----------------------|----------------------|----------------------|----------------------|

                                                                      01:43                
-----------------7----|----------------------|-----------------7----|---------------------|
-----------------6----|----------------------|-----------------6----|---------------------|
--7----7--------------|--7----7----x------7--|--7----7--------------|---------------------|
------------0---------|----------------------|------------0---------|---------3------5----|
----------------------|----------------------|----------------------|--5------------------|


-------------------|---------------------|-------------------|---------------------|
-------------------|---------------------|-------------------|---------------------|
-------------------|---------------------|-------------------|---------------------|
--L----------------|--7------3------5----|-------------------|---------------------|
-------------------|---------------------|--5----------------|-------5b------------|

                                 
---------------------|-------------------|---------------------|-------------------|-------------------|
---------------------|-------------------|---------------------|-------------------|-------------------|
---------------------|-------------------|---------------------|-------------------|-------------------|
---------3------5----|--L----------------|--7------3------5----|-------------------|-------------------|
--5------------------|-------------------|---------------------|--5----------------|-------------------|


 02:05                                                                                      
----------------------|-----------------7----|----------------------|-----------------7----|
----------------------|-----------------6----|----------------------|-----------------6----|
--7----7----x------7--|--7----7--------------|--7----7----x------7--|--7----7--------------|
----------------------|------------0---------|----------------------|------------0---------|
----------------------|----------------------|----------------------|----------------------|


----------------------|-----------------7----|----------------------|---------------7s--8----|
----------------------|-----------------6----|----------------------|---------------6s--7----|
--7----7----x------7--|--7----7--------------|--7----7----x------7--|--7----7----------------|
----------------------|------------0---------|----------------------|------------0-----------|
----------------------|----------------------|----------------------|------------------------|

                                                8x  02:39                                   
|-----------------------|-----------------7-----||---------------------|-------------------|
|*----------------------|-----------------6----*||---------------------|-------------------|
|---7----7----x------7--|--7----7---------------||---------------------|-------------------|
|*----------------------|------------0---------*||---------3------5----|--L----------------|
|-----------------------|-----------------------||--5------------------|-------------------|


---------------------|-------------------|---------------------|---------------------|
---------------------|-------------------|---------------------|---------------------|
---------------------|-------------------|---------------------|---------------------|
--7------3------5----|-------------------|---------------------|---------3------5----|
---------------------|--5----------------|-------5b------------|--5------------------|

                                                                                  02:57               
-------------------|---------------------|-------------------|-------------------|-------------------|
-------------------|---------------------|-------------------|-------------------|-------------------|
-------------------|---------------------|-------------------|-------------------|-------------------|
--L----------------|--7------3------5----|-------------------|-------------------|-------------------|
-------------------|---------------------|--5----------------|-------------------|-------------------|

                     03:03                                                                           
-------------------|--------------------------|--------------------------|--------------------------|
-------------------|--------------------------|--------------------------|--------------------------|
-------------------|--7--7--7--7--7--5--0-----|--------------------------|--7--7--7--7--7--5--0-----|
-------------------|-----------------------6--|--5--0--3--5--3--0--0--0--|-----------------------6--|
-------------------|--------------------------|--------------------------|--------------------------|

                                                                                 36x
-------------------------||---------------------------|---------------------------||
-------------------------||*--------------------------|--------------------------*||
-----7-----7-----7-------||---7--7--7--7--7--5--0-----|---------------------------||
--5----------------------||*-----------------------6--|--5--0--3--5--3--0--0--0--*||
-------------------------||---------------------------|---------------------------||

	04:45
   |--3--|                      |--3--|                    4x  05:06                           
-----------------------------|-----------------------------||----------------------------------|
*----------------------------|----------------------------*||----------------------------------|
---7--7--7--7----------------|--7--7--7--7-----------------||----------------------------------|
*----------------0--0--0--0--|----------------0--0--0--0--*||--0-0-0-0-0-0-0-0-0-0-0-0-0-0-0-0-|
-----------------------------|-----------------------------||----------------------------------|

                            
----------------------------------|---------------------|-------------------||
----------------------------------|---------------------|-------------------||
----------------------------------|---------------------|-------------------||
--0-0-0-0-0-0-0-0-0-0-0-0-0-0-0-0-|--0\-----------------|-------------------||
----------------------------------|---------------------|-------------------||
Composição de Rage Against the Machine / Zack de la Rocha
Colaboração e revisão:
  • Gustavo Amaro
69 exibições

0 comentários

Ver todos os comentários

Conseguiu tocar?

0 Tocaram 0 Ainda não

Grave um vídeo tocando Bullet In The Head e nos envie!

00:00 / 00:00
Outros vídeos desta música
Repetir Qualidade Automático
Outros vídeos desta música
00:00 / 00:00
Automático

Cifra Club Pro

Aproveite o Cifra Club com benefícios exclusivos e sem anúncios
Cifra Club Pro
Aproveite o Cifra Club com benefícios exclusivos e sem anúncios
OK