Cifra Club

Aprenda

Bullet In The Head

Rage Against The Machine

Cifra: Versão 4 (violão e guitarra)
tom: C
Tabbed by: Aird

Tuning:

Bass Intro
e|----------------------------------------------------------------------------|
B|----------------------------------------------------------------------------|
G|--------------------------------------------------7-------------------------|
D|--------------------------------------------------6-------------------------|
A|-7-------7------------7---7-------7-----------------------------------------|
E|-----------------------------------------0----------------------------------|

Verse W/Whammy Pedal
e|---------------------------------------------------------------------------|
B|----------------------------------------------------(Whammy Bar)-----------|
G|--24----24----24---24------24----24/12-----24----24----24^25^26------------|
D|--24----24----24---24------24----24/12-----24----24----24^25^26------------|
A|---------------------------------------------------------------------------|
E|---------------------------------------------------------------------------|

Chorus
e|---------------------------------------------------------------------------|
B|---------------------------------------------------------------------------|
G|---------------------------------------------------------------------------|
D|------------------------------------2--------------------------------------|
A|-2----------------------------------2--------------------------------------|
E|-0----3----5-------7----3-----5-----0----3^5-------------------------------|

e|---------------------------------------------------------------------------|
B|---------------------------------------------------------------------------|
G|---------------------------------------------------------------------------|
D|------------------------------------2--------------------------------------|
A|-2----------------------------------2--------------------------------------|
E|-0----3----5-------7----3-----5-----0--------------------------------------|

Solo W/Wah
e|-12-0-0--10-0-0--8-0-0--7-0-0--5-0--3-0-0-0-0-0-0-0-0-0-0-0----------------|
B|---------------------------------------------------------------------------|
G|---------------------------------------------------------------------------|
D|---------------------------------------------------------------------------|
A|---------------------------------------------------------------------------|
E|---------------------------------------------------------------------------|

e|-15------------13------12------11---------15-------14------13------12---------------|
B|---13----12------11------10------9----------13-------12------11------10-------------|
G|-----12----11------10------9------8/12--------12-------11------10------9~~~~--------|
D|------------------------------------------------------------------------------------|
A|------------------------------------------------------------------------------------|
E|------------------------------------------------------------------------------------|

            
e|-------12------12-----12-----12-----12-----12------------------------------|
B|-15^17---15^17---15^17--15^17--15^17--15^17---15^17^15-12------------------|
G|----------------------------------------------------------14-12------------|
D|---------------------------------------------------------------------------|
A|---------------------------------------------------------------------------|
E|---------------------------------------------------------------------------|

e|-------12------12-----12-----12-----12-----12-15^17^15-12~~~~--------------|
B|-15^17---15^17---15^17--15^17--15^17--15^17--------------------------------|
G|---------------------------------------------------------------------------|
D|---------------------------------------------------------------------------|
A|---------------------------------------------------------------------------|
E|---------------------------------------------------------------------------|

Middle Section
e|---------------------------------------------------------------------------|
B|---------------------------------------------------------------------------|
G|---------------------------------------------------------------------------|
D|---------------------------------------------------------------------------|X3
A|-7--7--7--7--7--5----------------------------------------------------------|
E|-------------------5--6--5--0--3--5---3--0--0--0---------------------------|
   PM---------------------------------------------

e|---------------------------------------------------------------------------|
B|---------------------------------------------------------------------------|
G|---------------------------------------------------------------------------|
D|---------------------------------------------------------------------------|
A|-7--7--7--7--7--5----------------------------------------------------------|
E|-------------------5--6--5--0--3--5--3-------------------------------------|
   PM------------------------------------

e|---------------------------------------------------------------------------|
B|---------------------------------------------------------------------------|
G|------------------------------------------------------------(Pick Scrap)---|
D|--9--9--9--9--9--7------------------------------------2-------X~~~~~~------|
A|--7--7--7--7--7--5--7-8--7-----5-7--5--2--2--2--X8----2-------X~~~~~~------|
E|--------------------5/6--5--0--3/5--3--0--0--0--------0--------------------|

Outro       
e|---------------------------------------------------------------------------|
B|---------------------------------------------------------------------------|
G|---------------------------------------------------------------------------|
D|-9---9--9----------------------------------------------------------9-------|
A|-7---7--7--------------------X8--2-2-2-2-2-2-2-2-2-2-2-2-2-2-2-2---7-------|
E|-----------0---0---0---0---0-----0-0-0-0-0-0-0-0-0-0-0-0-0-0-0-0---0-------|
             PM---------------
Composição de Rage Against the Machine / Zack de la Rocha
237 exibições
    • ½ Tom
    • A
    • Bb
    • B
    • C
    • Db
    • D
    • Eb
    • E
    • F
    • F#
    • G
    • Ab
  • Adicionar à lista

    0 comentários

    Ver todos os comentários

    Conseguiu tocar?

    0 Tocaram 0 Ainda não

    Grave um vídeo tocando Bullet In The Head e nos envie!

    00:00 / 00:00
    Outros vídeos desta música
    Repetir Qualidade Automático
    Outros vídeos desta música
    00:00 / 00:00
    Automático

    Cifra Club Pro

    Aproveite o Cifra Club com benefícios exclusivos e sem anúncios
    Cifra Club Pro
    Aproveite o Cifra Club com benefícios exclusivos e sem anúncios
    OK