Cifra Club

Aprenda

Born Of a Broken Man

Rage Against The Machine

Cifra: Principal (violão e guitarra)
Tom: C
Tirado por Rômulo Teixeira - Banda DANUTS!

Dropped-D tuning (DADGBE)

intro - riff 1   clean
------
E|---------------------------------------|
B|---------------------------------------|
G|-14-14-14-14-14--13-13-13-16-16--------|
D|--0--0--0--0--0---0--0--0--0--0--------|
A|--0--0--0--0--0---0--0--0--------------|
D|---------------------------------------|

E|--x--x--x--x--x----------------------|
B|--x--x--x--x--x----------------------|
G|--0--0--0--0--0--4--2-2--------------|
D|-12-12-12-12-12--0--0-0--------------|
A|--x--x--x--x--x-----0-0--------------|
D|--x--x--x--x--x----------------------|

played two times 

riff 2 - distortion
------
E|------------------------------------------------|
B|------------------------------------------------|
G|------------------------------------------------|
D|---5/65------------------x-x-x-x-------------------|
A|---------3-0--3-0--0-3-0--x-x-x-x--3-0--3-0--0-3-0--|
D|-0-------3-0----0--0-3-0--x-x-x-x--3-0----0--0-3-0--|

played 2 times then

E|------------------------------------------------|
B|------------------------------------------------|
G|------------------------------------------------|
D|---5/65------------------x-x-x-x-------7(b)-7------|
A|---------3-0--3-0--0-3-0--x-x-x-x--3-0--------------|
D|-0-------3-0----0--0-3-0--x-x-x-x--3-0--------------|

(b)= bend and pick notes

E|------------------------------------------------|
B|------------------------------------------------|
G|------------------------------------------------|
D|---5------------------x-x-x-x-------------------|
A|-----3-0--3-0--0-3-0--x-x-x-x--3-0--3-0--0-3-0--|
D|-0---3-0----0--0-3-0--x-x-x-x--3-0----0--0-3-0--|

riff one is played 2 times during the verse part

riff two - chorus

riff one - second verse

riff two - chorus

riff 3 
------
E|---------------------------|
B|---------------------------|
G|---------------------------|
D|---------------------------|
A|-------------15--17-17-17--|
D|-0-0-0-0-0-0---------------|

played three times 

then 

E|--------------------------|
B|--------------------------|
G|--------------------------|
D|---5/65------------------|
A|---------3-0--3-0--0-3-0--|
D|-0-------3-0----0--0-3-0--|

riff 1 - third verse

riff 2 - played several times
(play the first two times with wah-wah in the closed position)

riff 3 - outro
Composição de Brad Wilk / Tim Commerford / Tom Morello / Zack de la Rocha
Colaboração e revisão:
  • jose neto
  • Romulo Teixeira
14.139 exibições
    • ½ Tom
    • A
    • Bb
    • B
    • C
    • Db
    • D
    • Eb
    • E
    • F
    • F#
    • G
    • Ab
  • Adicionar à lista

    0 comentários

    Mostrar mais comentários

    Conseguiu tocar?

    2 Tocaram 0 Ainda não

    Grave um vídeo tocando Born Of a Broken Man e mande pra gente!

    00:00 / 00:00
    outros vídeos desta música
    repetir qualidade Automático
    Outros vídeos desta música
    00:00 / 00:00
    Automático

    Cifra Club Pro

    Aproveite o Cifra Club com benefícios exclusivos e sem anúncios
    7 dias grátis
    Cifra Club Pro
    Aproveite o Cifra Club com benefícios exclusivos e sem anúncios
    7 dias grátis
    OK