Cifra Club

Aprenda

Bombtrack

Rage Against The Machine

Tab de baixo: Versão 2
Tuning E A D G
Tabbed: Daniel (*)
Comments:
This is a pretty quick intro which is reasonably hard to get the left hand 
fingers on the right string but the rest of the song is simple and pretty slow.
Im pretty sure this is perfect just have a listen and there might be some variations 
that i havent put in. Have fun!!

Intro:
G[----------------------------0------------------------]
D[---2-0--0---------2-0---0-2--------------------------]
A[-------2--2-0---------2------------------------------]
E[-0------------3-0------------------------------------]

G[----------------------------------------------------]
D[---2-0--0---------2-0---0---------------------------]
A[-------2--2-0---------2---2-------------------------]
E[-0------------3-0------------3-2--------------------]

G[----------------------------0------------------------]
D[---2-0--0---------2-0---0-2--------------------------]
A[-------2--2-0---------2------------------------------]
E[-0------------3-0------------------------------------]

G[----------------------------------------------------]
D[---2-0--0---------2-0---0---------------------------]
A[-------2--2-0---------2---2-------------------------]
E[-0------------3-0------------3-2--------------------]

Chorus:
G[----------------------------------------------------]
D[------4----------4-2-----4-----6--5--4--------------]
A[-------------------------------4--3--2--------------]
E[-0-2----0-2--0-2-----0-2---0-2----------------------]

Verse:
G[----------------------------------------------------]
D[-------------------------------4--2-----------------]
A[------------------------------------4-3-2-----------]
E[-2-2-0--2-2-2-2--5^-2-2-0-2-0-------------5---------]

Lead up to Guitar Solo:
G[-----------------------------------------------------------]
D[-----------------------------------------------------------]
A[-----------------------------------------------------------]
E[-0-0-0-0-0-0-0-0-0-0-0-0-0-0-0-0-0-0-0-0-0-0-0-0-0-0-0-0-0-]

G[-------------------------------------------]
D[-------------------------------------------]
A[-7-7-7-7-7-7-7-7-7-------------------------]
E[-------------------------------------------]

Heavy Bit: (also played during solo)
G[--------------------xxx--------------------------------]
D[--------------------xxx--------------------------------]
A[--------------------xxx-----------------4p0-3p0-2p0----]
E[-2p0-2p0-5^-2p0-2p0-xxx-2p0-2p0-5^-2p0-----------------]

Last bar after Chorus Rif:
G[----------------------------------------------------]
D[------4----------4-2-----4-----6--5--4---4-3-2------]
A[-------------------------------4--3--2---2-1-0------]
E[-0-2----0-2--0-2-----0-2---0-2----------------------]

Any Suggestions coreections send us an E-mail
Thanx
     Daniel
Composição de Brad Wilk / Tim Commerford / Tom Morello / Zack de la Rocha
517 exibições

0 comentários

Ver todos os comentários

Conseguiu tocar?

0 Tocaram 0 Ainda não

Grave um vídeo tocando Bombtrack e nos envie!

00:00 / 00:00
Outros vídeos desta música
Repetir Qualidade Automático
Outros vídeos desta música
00:00 / 00:00
Automático

Cifra Club Pro

Aproveite o Cifra Club com benefícios exclusivos e sem anúncios
Cifra Club Pro
Aproveite o Cifra Club com benefícios exclusivos e sem anúncios
OK