Cifra Club

Aprenda

Dead Bodies

Rancid

Cifra: Versão 3 (violão e guitarra)
Quer fazer aulas de música com a gente? Responda essas perguntas
e nos ajude nesse projeto! →
tom: Ab
                     intro 
G-----2--------------------------------------------       title:Dead bodies
A-----------4-0-4---4-2-0-1111--------------------- x2    Tab by: Thunda boi
E------------------------------3333----------------
This is the bass line but it sound the same on guitar 
          Verse 
E------------------------------
B------------------------------
C------------------------------
G-77---------------------------
D-77-77-33-5555---------------- x8
A-55-77-33-5555----------------
E----55-11-3333----------------
pm.. .. .. .... 
                chorus
E-----------------------------------------------
B-----------------------------------------------
C-----------------------------------------------x2
G-77777-------3333------77777777----------------
D-77777-77777-3333-5555-77777777----------------
A-55555-77777-1111-5555-55555555----------------
E-------55555------3333------------------------- 


it does throught the whole song hope you like it
Compositor não encontrado.
60 exibições
    • ½ Tom
    • A
    • Bb
    • B
    • C
    • Db
    • D
    • Eb
    • E
    • F
    • F#
    • G
    • Ab
  • Adicionar à lista

    0 comentários

    Ver todos os comentários

    Conseguiu tocar?

    0 Tocaram 0 Ainda não

    Grave um vídeo tocando Dead Bodies e nos envie!

    00:00 / 00:00
    Outros vídeos desta música
    Repetir Qualidade Automático
    Outros vídeos desta música
    00:00 / 00:00
    Automático

    Cifra Club Pro

    Aproveite o Cifra Club com benefícios exclusivos e sem anúncios
    Cifra Club Pro
    Aproveite o Cifra Club com benefícios exclusivos e sem anúncios
    OK