Cifra Club

Aprenda

Un Poco De Tu Amor

RBD

Tab de baixo: Versão 2
Intro 
g-------------------------- 
d-------------------------- 
a-5x-5--5x-5--2x-2--2x-2--------------2x-2--2x-2------------ 
e-------------------------5x-5--5x-5-- 
 
(eu sei bem que sou um amigo a mais ) 
 
g-------------------------- 
d-------------------------- 
a-5x-5--5x-5--2x-2--2x-2--------------2x-2--2x-2------------ 
e-------------------------5x-5--5x-5-- 
 
 
Quando começa a cantar(mais eu sei tambem)as notas sao tocadas 
quase juntas as que estão dentro dos sinais ( ) sao tocadas quase juntas 
(TumTum) para ficar mais fasio siga a bateria 
 
g--------------------------- 
d--------------------------- 
a-5-(5-5)--5-(5-5)--2-(2-2)--2-(2-2)--------------------2-(2-2)--2x-2---------- 
e-------------------------------------5-(5-5)--5-(5-5)- 
 
e continua assim como na tab acima ate chegar no Refrão 
 
(Refrão) 
(Um pouco desse amor para) 
g-------------------------- 
d--------------------------                                    (2X) 
a--5-(5-5)--5-(5-5)--2-(2-2)--2-(2-2)--4-2-0-(0-0)--2-(2-2)      
e-------------------------- 
 
(basta um sinal e um minuto para se falar) 
 
g---------------------------- 
d---------------------------- 
a--5-(5-5)--5-(5-5)--2-(2-2)--2-(2-2)-------------------2-(2-2)----- 
e--------------------------------------5-(5-5)--5-(5-5) 
 
E Dai vai repitindo ate o final da musica
Composição de Max di Carlo
Colaboração e revisão:
  • karoline paula
28 exibições

0 comentários

Mostrar mais comentários

Conseguiu tocar?

0 Tocaram 0 Ainda não

Grave um vídeo tocando Un Poco De Tu Amor e mande pra gente!

00:00 / 00:00
outros vídeos desta música
repetir qualidade Automático
Outros vídeos desta música
00:00 / 00:00
Automático

Cifra Club Pro

Aproveite o Cifra Club com benefícios exclusivos e sem anúncios
Cifra Club Pro
Aproveite o Cifra Club com benefícios exclusivos e sem anúncios
OK