Cifra Club

Aprenda

Un Poco De Tu Amor

RBD

Tab de baixo: Principal
Introdução - Guitarra.
Estou ateh enviando, a musica e o tempo =].

Se vc quiser começar a tocar, aos 00:32 da musica
Toque assim:

G ----------------------------------------------------------------------
D ----------------------------------------------------------------------
A -------------------6--66--66--66--6-4--44--44--44--4-6--66--66--66--6-
E --4--44--44--44--4----------------------------------------------------

00:48

G --------------------------------------------
D --------------------------------------------
A -----------66666666--44444444--6------------
E --44444444----------------------------------

00:55

G -----------------------------------------------------------------------------------    
D -----------------------------------------------------------------------------------
A -------------------6666666666666666--4444444444444444--6666666666666666------------    (2x)
E --4444444444444444-----------------------------------------------------------------

01:27 (Guitarra.)

01:43

G ----------------------------------------------------------------------
D ----------------------------------------------------------------------
A -------------------6--66--66--66--6-4--44--44--44--4-6--66--66--66--6-
E --4--44--44--44--4----------------------------------------------------

01:59

G --------------------------------------------
D --------------------------------------------
A -----------66666666--44444444--6------------
E --44444444----------------------------------

02:07

G -----------------------------------------------------------------------------------    
D -----------------------------------------------------------------------------------
A -------------------6666666666666666--4444444444444444--6666666666666666------------    (2x)
E --4444444444444444-----------------------------------------------------------------

02:39 (As pausas).

02:47

G -----------------------------------------------------------------------------------    
D -----------------------------------------------------------------------------------
A -------------------6666666666666666--4444444444444444--6666666666666666------------    (2x)
E --4444444444444444-----------------------------------------------------------------
Composição de Max di Carlo
Colaboração e revisão:
  • Alexandre
2.652 exibições

0 comentários

Mostrar mais comentários

Conseguiu tocar?

1 Tocaram 0 Ainda não

Grave um vídeo tocando Un Poco De Tu Amor e mande pra gente!

00:00 / 00:00
outros vídeos desta música
repetir qualidade Automático
Outros vídeos desta música
00:00 / 00:00
Automático

Cifra Club Pro

Aproveite o Cifra Club com benefícios exclusivos e sem anúncios
7 dias grátis
Cifra Club Pro
Aproveite o Cifra Club com benefícios exclusivos e sem anúncios
7 dias grátis
OK