Cifra Club

Aprenda

Staples

Relient K

Tab de baixo: Principal
Nick

Verse 1:
E-------777-555--|
A--55-55---------| x5
D----------------|
G----------------|

E------777-555-3333-5555-|
A--555-------------------|
D------------------------|
G------------------------|

Verse 2:
E------333-----77---555--|
A--555-----555-----------| x4
D------------------------|
G------------------------|

Verse 3:
  (1)            (2)             (3)              (4)
E-22-3---77-55----22-3---77-55----22-3---77-55----22-3----7777-|
A------55-------------55---------------55--------------55------|
D--------------------------------------------------------------|
G--------------------------------------------------------------|

Verse 4:
E------333-----77---555--|
A--555-----555-----------| x4
D------------------------|
G------------------------|

Guitar part(no vocals but bass is here):
E---------------------------------|
A-555-555-555-555-555-555-555-555-|
D---------------------------------|
G---------------------------------|

Verse 5:
E-----333----77---555-|
A-555-----555---------| x4
D---------------------|
G---------------------|

Solo(play 8x):
E------------------------------------------|
A-5-7------------------------------5-----5-|
D-----4-7-5-4-----7-9-7-9-7-5--5-4---7-7---|
G-------------7-6--------------------------|


LYRICS


Cause it hasn't been that long
since you almost hit the tree.
Cause it hasn't been that long
since you hit the pole because of speed.

Do you remember
the ambulance it took you there?
Do you remember
they cut your pants your favorite pair?
They shaved your head.
Where's all your hair.

The doctor said,
"We need some staples for his head."
The doctor said,
"Another foot you could be dead."
The doctor said,
"We need some staples for his head."
The doctor said,
"You should have took the bus instead."

All you could hear
was kachunk, kachunk, kachunk.
All you could hear
was the doctor putting staples in this punk.
[repeat]

He could have died that day.
Which means that he would not be here.
He would have gone away,
friends and family we'd shed our tears.
But the good thing would be
is that we would always know.
He would be living
with Jesus Christ in his new home.
[repeat]
Composição de Brian Pittman / Matthew Hoopes / Matthew Thiessen / Stephen Cushman
169 exibições

0 comentários

Ver todos os comentários
00:00 / 00:00
outros vídeos desta música
repetir qualidade Automático
Outros vídeos desta música
00:00 / 00:00
Automático

Cifra Club Pro

Aproveite o Cifra Club com benefícios exclusivos e sem anúncios
Cifra Club Pro
Aproveite o Cifra Club com benefícios exclusivos e sem anúncios
OK