Cifra Club

Aprenda

O Que Eu Quis

Restart

Cifra: Principal (violão e guitarra)
tom: C
Intro: G  C9  G  C9
      G                 C9                 G                 C9
E|-----------------------------------------------------------------3--|
B|-------3--------3--------3--------3--------3--------3--------3---3--|
G|--0h2-0-0--0h2-0-0--0h2-0-0--0h2-0-0--0h2-0-0--0h2-0-0--0h2-0-3--0--|
D|-----------------------------------------------------------------2--|
A|-------------------3--------3--------------------------3---------3--|
E|-3--------3--------------------------3--------3---------------------|

         G
E outra vez
    C9                                              G
Me pego olhando os erros e pensando no que a gente fez
   C9                    C9 (deixa soar)    G    G/B
E paro sempre no momento em que pude ver você feliz
   C9
Eu sim era feliz
A4                   C9   G5/D
  Um dia eu vou te dizer

Refrão:
    G G/B  A4
O que eu quis
C9                         G   G/B A4
Era poder te ter um pouco mais aqui
     C9                         G  G/B A4
Bem perto do meu peito e ver você sorrir
    C9                     A4
Com as batidas do meu coração
     C9                   G5/D (deixa soar)
Que bate acelerado de pensar em te perder
(repete o solo na próxima estrofe)
      G                 C9                 G                 C9
E|-----------------------------------------------------------------3--|
B|-------3--------3--------3--------3--------3--------3--------3---3--|
G|--0h2-0-0--0h2-0-0--0h2-0-0--0h2-0-0--0h2-0-0--0h2-0-0--0h2-0-0-----|
D|-----------------------------------------------------------------2--|
A|-------------------3--------3--------------------------3---------3--|
E|-3--------3--------------------------3--------3---------------------|

C9                                              G
Que sonha acordado procurando uma maneira de te ter
   C9 (deixa soar)
De te ter...
        G
Mas eu sei
        C9                                           G
Que eu vou te ver de novo e tudo vai dar certo dessa vez
C9                                   G     G/B
Só eu sei o quanto era bom poder te ver feliz
    C9
Eu sim era feliz
A4                   C9   G5/D
  Um dia eu vou te dizer

Refrão:
    G      A4
O que eu quis
C9                         G   G/B A4
Era poder te ter um pouco mais aqui
     C9                         G  G/B A4
Bem perto do meu peito e ver você sorrir
    C9                     A4
Com as batidas do meu coração
     C9                   G5/D
Que bate acelerado de pensar em te perder

    G      A4
O que eu quis
C9                         G      G/B A4
Era poder te ter um pouco mais aqui
     C9                         G     G/B A4
Bem perto do meu peito e ver você sorrir
    C9                     A4
Com as batidas do meu coração
     C9                   G5/D (deixa soar)
Que bate acelerado de pensar em te perder
(solo na próxima estrofe)
      G                 C9
E|-------------------------------|
B|-------3--------3--------3-----|
G|--0h2-0-0--0h2-0-0--0h2-0-0----|
D|-------------------------------|
A|-------------------3--------3--|
E|-3--------3--------------------|

G                                             C9
Que sonha acordado procurando uma maneira de te ter
   C9
De te ter...

G     A4     C9
Uuuuh uuh uh uuuh
G     A4     C9
Uuuuh uuh uh uuuh
G (deixa soar)
Ah
Compositor não encontrado.
Colaboração e revisão:
18.512 exibições
    • ½ Tom
    • A
    • Bb
    • B
    • C
    • Db
    • D
    • Eb
    • E
    • F
    • F#
    • G
    • Ab
  • Adicionar à lista

    0 comentários

    Ver todos os comentários

    Conseguiu tocar?

    13 Tocaram 0 Ainda não

    Grave um vídeo tocando O Que Eu Quis e nos envie!

    00:00 / 00:00
    Outros vídeos desta música
    Repetir Qualidade Automático
    Outros vídeos desta música
    00:00 / 00:00
    Automático

    Cifra Club Pro

    Aproveite o Cifra Club com benefícios exclusivos e sem anúncios
    Cifra Club Pro
    Aproveite o Cifra Club com benefícios exclusivos e sem anúncios
    OK