Cifra Club

Aprenda

All The Kings Horses Intro

Robert Plant

Cifra: Principal (violão e guitarra)
tom: G

from the album "Mighty Rearranger"

Right, this is the toughest song to date that I've tabbed by ear.  Tough because even
I could tell it was in an open tuning, I wasn't sure what that tuning was.  I started
open C when I heard the droning C chord at the very end of the intro.  So I started 
have what I believe to be a totally accurate interpretation of the intro right here.  
 Don't forget to tune in open C (CGCGCe).

 Intro
  Q=62
                  C                                     G
 4/4
  Gtr I
  T T T  T  S S E  E  E  S   S  E  E    T T T  T  S S E  E  E  S   S  E  E
|------------------0-----0---0-----0--|------------------3-----3---3-----3--|
|------------------0-----0---0-----0--|------------------2-----2---2-----2--|
|-----------0h2----5-----5---5-----5--|-----------0h2----4-----4---4-----4--|
|-0h2h4p(0)--------0-----0---0-----0--|-0h2h4p(0)--------2-----2---2-----2--|
|------------------5-----5---5-----5--|---------------0-(0)-0-(0)-(0)-0-(0)-|
|---------------0-(0)-0-(0)-(0)-0-(0)-|-------------------------------------|


                    F
  T T T  T  T T S E  E  E  S   S  E  E
|--------------------5-----5---5-----5---|
|--------------------5-----5---5-----5---|
|-----------0h2h5----5-----5---5-----5---|
|-0h2h4p(0)----------5-----5---5-----5---|
|--------------------5-----5---5-----5---|
|-----------------5-(5)-5-(5)-(5)-5-(5)--|

            C
  S S S S E  H     E
|---------------------|
|-----------^0----(0)-|
|-----------^5----(5)-|
|-----0-2-0-^0----(0)-|
|-0-2-------^5----(5)-|
|-----------^0----(0)-|

Duration Legend
---------------
+ - note tied to previous; . - note dotted; .. - note double dotted
Uncapitalized letters represent notes that are staccato (1/2 duration)
Irregular groupings are notated above the duration line
Duration letters will always appear directly above the note/fret number it represents the
duration for.  Duration letters with no fret number below them represent rests.  Multi-
bar rests are notated in the form Wxn, where n is the number of bars to rest for.  Low
melody durations appear below the staff

Tablature Legend
----------------
 h   - hammer-on
 p   - pull-off
 b   - bend
 pb  - pre-bend
 r   - bend release (if no number after the r, then release immediately)
 /  - slide into or out of (from/to "nowhere")
 s   - legato slide
 S   - shift slide
n(n) - tapped harmonic
 ~   - vibrato
 tr  - trill
 T   - tap
 TP  - trem. picking
 PM  - palm muting
n/  - tremolo bar dip; n = amount to dip
 n  - tremolo bar down
 n/  - tremolo bar up
/n  - tremolo bar inverted dip
 =   - hold bend; also acts as connecting device for hammers/pulls
   - volume swell (louder/softer)

Misc Legend
-----------
 |  - bar
||o - repeat start
o|| - repeat end
 :  - bar (freetime)
 &  - Coda


***************************************************************************************
* Generated using Power Tab Editor by Brad Larsen - http://* *
***************************************************************************************
1.138 exibições
    • ½ Tom
    • A
    • Bb
    • B
    • C
    • Db
    • D
    • Eb
    • E
    • F
    • F#
    • G
    • Ab
  • Adicionar à lista

    0 comentários

    Ver todos os comentários

    Conseguiu tocar?

    1 Tocaram 0 Ainda não

    Grave um vídeo tocando All The Kings Horses Intro e nos envie!

    00:00 / 00:00
    outros vídeos desta música
    repetir qualidade Automático
    Outros vídeos desta música
    00:00 / 00:00
    Automático

    Cifra Club Pro

    Aproveite o Cifra Club com benefícios exclusivos e sem anúncios
    Cifra Club Pro
    Aproveite o Cifra Club com benefícios exclusivos e sem anúncios
    OK