Cifra Club

Aprenda

Stairway To Heaven Solo

Jimmy Page

Cifra: Principal (violão e guitarra)
tom: F
E|-------5---------------------|--------5-8-8-8b(9)-8-5------8-10p8--------------|
B|---------8-5-----------------|-8b(10)-----------------8/10--------10-8----8h10-|
G|-7b(9)-------7-5---7-5-------|-----------------------------------------10------|
D|-----------------7-----7-5---|-------------------------------------------------|
A|---------------------------8-|-------------------------------------------------|
E|-----------------------------|-------------------------------------------------|

E|---------5------------------------------------|--5-----------------------------|
B|-------5---8p5--------------------------------|----8-5-------------------------|
G|-7b(9)---------7-5---7-5-----------5---5-5p0--|--------7-5---7-5---------------|
D|-------------------7-----7-5---5-7---7--------|------------7-----7-5-7-5-------|
A|-----------------------------7----------------|--------------------------8v----|
E|----------------------------------------------|--------------------------------|

E|--------------------|-----------------|------------------------|-15b(17)-15p13-|
B|--------------------|--------------13-|-15b(17)-15p13-15p13----|---------------|
G|--------------------|-----12-12h14----|---------------------14-|---------------|
D|-----10h12p10----10-|-/14-------------|------------------------|---------------|
A|-/12----------12----|-----------------|------------------------|---------------|
E|--------------------|-----------------|------------------------|---------------|
       (12x)
E|------------------|-15b-12-15-12--------------------------------15-------------|
B|-15br-15p13----13-|--------------15-13----13-15-13----13-15-15b----15br-p13----|
G|------------14----|--------------------14----------14-----------------------14-|
D|------------------|------------------------------------------------------------|
A|------------------|------------------------------------------------------------|
E|------------------|------------------------------------------------------------|

E|---------15-17p15-----------------------------|--------------------------------|
B|-15b(17)----------15br-13-15-13----13-15b(17)-|--------------------------------|
G|--------------------------------14------------|-14b(16)-14b(16)-14-12-14-12-14~|
D|----------------------------------------------|--------------------------------|
A|----------------------------------------------|--------------------------------|
E|----------------------------------------------|--------------------------------|
                                                     (6x)
E|---------------------------------|-----------|----20p17-----|-----20b(22)~~~~--|
B|---------5-------5---------------|----/17----|----------17--|------------------|
G|-10b(12)---7-5-7---7-5-7-8-7-5---|-----------|--------------|-~----------------|
D|-------------------------------7-|-----------|--------------|------------------|
A|---------------------------------|-----------|--------------|------------------|
E|---------------------------------|-----------|--------------|------------------|







Colaboração e revisão:
  • Gabriel Milani
  • hooooooo
55.136 exibições
    • ½ Tom
    • A
    • Bb
    • B
    • C
    • Db
    • D
    • Eb
    • E
    • F
    • F#
    • G
    • Ab
  • Adicionar à lista

    0 comentários

    Ver todos os comentários

    Conseguiu tocar?

    8 Tocaram 7 Ainda não

    Grave um vídeo tocando Stairway To Heaven Solo e nos envie!

    00:00 / 00:00
    outros vídeos desta música
    repetir qualidade Automático
    Outros vídeos desta música
    00:00 / 00:00
    Automático

    Cifra Club Pro

    Aproveite o Cifra Club com benefícios exclusivos e sem anúncios
    Cifra Club Pro
    Aproveite o Cifra Club com benefícios exclusivos e sem anúncios
    OK