Cifra Club

Aprenda

Proposta

Roberto Carlos

Cifra: Versão 3 (violão e guitarra)
tom: G
Proposta

|-------7-9-10/12-9-----------5-7-8/10-7---------8-6------------7-5-10---|
|-----7-------------10------5-----------8------6-----6-8------5----------|
|---7---------------------5------------------6--------------5------------|
|------------------------------------------------------------------------|
|------------------------------------------6--------------5--------------|
|-7---------------------5------------------------------------------------|
 
          G                                  B7 
  eu te proponho   nós nos amarmos,   nos entregarmos
           Em                        G7
  neste momento   tudo lá fora   deixar ficar
            C                  D7
  eu te proponho    te dar meu corpo
              G              Em
  depois do amor,   o meu conforto
             A                 A7       
  e além de tudo,   depois de tudo
            D
  te dar a minha paz
 
            G                              B7
  eu te proponho   na madrugada,    você cansada
               Em                             G7
  te dar meu braço   no meu abraço   fazer você dormir
            C                 D7
  eu te proponho    não dizer nada
             G                 Em
  seguirmos juntos   a mesma estrada
            Am7               D7
  que continua    depois do amor
       G       Bm  Am  D7
  no amanhecer
 

|---7----8-7-7-------------------7-8-7------7----------7-7----------|
|-----10--------10-8-7-----7-8-9-------10-8---10-10--7-----10-10-8--|
|-7--------------------7-9------------------------------------------|
|-------------------------------------------------------------------|
|-------------------------------------------------------------------|
|-------------------------------------------------------------------|
|-5-7-5-5-3-3-2-3-5-3-3-2-3-5-7-12-13-12-10-10-9--------------------|
|-------------------------------------------------------------------|
|-------------------------------------------------------------------|
|-------------------------------------------------------------------|
|-------------------------------------------------------------------|
|-------------------------------------------------------------------|
 
            G                              B7
  eu te proponho   na madrugada,    você cansada
               Em                             G7
  te dar meu braço   no meu abraço   fazer você dormir
            C                 D7
  eu te proponho    não dizer nada
             G                 Em
  seguirmos juntos   a mesma estrada
            Am7               D7
  que continua    depois do amor
       G       Bm  Am  D7
  no amanhecer
Composição de Erasmo Carlos / Roberto Carlos
Colaboração e revisão:
  • Pedro Peixoto
8.895 exibições
    • ½ Tom
    • A
    • Bb
    • B
    • C
    • Db
    • D
    • Eb
    • E
    • F
    • F#
    • G
    • Ab
  • Adicionar à lista

    0 comentários

    Ver todos os comentários

    Conseguiu tocar?

    2 Tocaram 0 Ainda não

    Grave um vídeo tocando Proposta e nos envie!

    00:00 / 00:00
    Outros vídeos desta música
    Repetir Qualidade Automático
    Outros vídeos desta música
    00:00 / 00:00
    Automático

    Cifra Club Pro

    Aproveite o Cifra Club com benefícios exclusivos e sem anúncios
    Cifra Club Pro
    Aproveite o Cifra Club com benefícios exclusivos e sem anúncios
    OK