Cifra Club

Miles And States

Run Kid Run

Cifra: Principal (violão e guitarra)
tom: G
Intro: (Riff) Am ( C  Bm )  G  ( C  Bm ) (2x)

Am ( C  C/B )       G ( C  B/G ) 
I'm trying real hard, hard not to care
But I miss you my dear won't you come back
Three weeks and then four no more nights
Turning to days to be spent with you

(Verso)
Entrada pro Refrão:       
E|-----------------|                      
B|-8-8-8-7---------|
G|--------7-7-9----|
D|-----------9-----|
A|-----------------|
E|-----------------|

Riff no Refrão:
E|-------10-10-----------------------10-10------------------|
B|----8-8-----8-8-7-7---7-7-8-8---8-8-----8-8-7-7---7-7-8-8-|
G|-9-9---------------9-9-------7-7---------------9-9--------|
D|----------------------------------------------------------|
A|----------------------------------------------------------|
E|----------------------------------------------------------|

Em             D           G           C D
I don't know how I'll get through this
Em       D       G     C D
But don't worry I will
Em             D           G           C D
Your words they cut right through this
Em             D           G           C D
Please tell me you still care

(Intro)

(Verso)
             D      Em
Cause I'm waiting for
G             Bm   D       Em   G
Your return to come back home
G                Bm D       Em
I need you more than you could know
G          D      Em   G   C
And I could never let you go

(Refrão)
Solo:
   Em          D           G            D Em       Em       D       G              Em D G
E|--------------------------------------------------------------17-20-19-17--------------|
B|-------------------10~-12~-10~------------------17-19-20-19-20-----------20-19--17-----|
G|-9~-11~-12~-11~-12~-----------12~-11~-----9-9---------------------------------19--19---|
D|-------------------------------------12-12------------------------------------------17-|
A|---------------------------------------------------------------------------------------|
E|---------------------------------------------------------------------------------------|

  

00:00 / 00:00
Outros vídeos desta música
Repetir
Outros vídeos desta música
Composição de Run Kid Run
Colaboração e revisão:
  • Danillo
86 exibições
    • ½ Tom
    • A
    • Bb
    • B
    • C
    • Db
    • D
    • Eb
    • E
    • F
    • F#
    • G
    • Ab
  • Adicionar à lista

    0 comentários

    Ver todos os comentários

    Entre para oCifra Club PRO

    Tenha acesso a benefícios exclusivos no App e no Site

    • Chega de anúncios

    • Prioridade de compra em lançamentos

    • Mais recursos no app do Afinador

    • Atendimento Prioritário

    • Descontos nos produtos Cifra Club

    • Ajude a produzir mais conteúdo

    00:00 / 00:00

    Cifra Club Pro

    Aproveite o Cifra Club com benefícios exclusivos e sem anúncios
    Cifra Club Pro
    Aproveite o Cifra Club com benefícios exclusivos e sem anúncios
    OK