Cifra Club

Berlin City Of Night

Peter Schilling

Cifra: Principal (violão e guitarra)
tom: F#m
[Intro]

E|---------------------------------------------------|
B|-----------------------------------------------2---|
G|--------------2------------------2-----------------|
D|------------------2-------------------2------------|
A|---------4------------4----------------------------|
E|-----2----------------------2-------------2--------|

Listen, can't you hear your crying heart?
My friend, oh i can see you're torn apart

Bm            D           E
I look to you thinking of you tonight

E|---------------------------------------------------|
B|-----------------------------------------------2---|
G|--------------2------------------2-----------------|
D|------------------2-------------------2------------|
A|---------4------------4----------------------------|
E|-----2----------------------2-------------2--------|

Old ghosts, haunt you and they won't let go
They know, the city can take time to grow

Bm                      D             E
What's done is done but you are still young, berlin

          F#m        F#m7  E

E|-----2--2--2--2----2-------0---------------------|
B|-----2--2--2--2----2-------0---------------------|
G|-----2--2--2--2----2-------1----2^4--2-----------|
D|-----4--4--4--4----2-------2-------------2---4---|
A|-----4--4--4--4----4-------2---------------------|
E|-----2--2--2--2----2-------0---------------------|

F#m    F#7m B7
Tell me
                  F#m        F#m7 B7
What will be your final role?

F#m     F#7 B7
It seems
                  F#m          F#m7 B7
Either side would sell your soul
     Bm                    D          E
It's such a high cost when dreams get lost

   F#m      E       A
In berlin,  city of night
    C#m               F#m
You sleep between the east and west
 D                 C#7
Along the left and right
 F#m    E             A
Broken, kept from the light
    C#m                 F#m
You close your eyes and everything
 D                  C#7
Remains in black and white
 F#m     E             A
Berlin,  when will you fight
   C#m                 F#m
The mind that draws the border
      D               C#7
No one crosses in the city of night

E|---------------------------------------------------|
B|-----------------------------------------------2---|
G|--------------2------------------2-----------------|
D|------------------2-------------------2------------|
A|---------4------------4----------------------------|
E|-----2----------------------2-------------2--------|

 F#m   F#m7 B7
Strange
                  F#m                 F#m7 B7
Times were to have thought make a whole
F#m        F#m7 B7
You'll find
               F#m              F#m7 B7
Some old wounds cannot be closed
    Bm             D           E
But i look to you, thinking of you

   F#m      E       A
Oh berlin,  city of night,
    C#m               F#m
You sleep between the east and west,
 D                 C#7
Along the left and right
 F#m    E             A
Broken, kept from the light
    C#m                 F#m
You close your eyes and everything
 D                  C#7
Remains in black and white
 F#m     E             A
Berlin,  when will you fight
   C#m                 F#m
The mind that draws the border
      D               C#7
No one crosses in the city of night

F#m   F#m7    E
Today, in the world of freedom
The proudest post is ich bin ein berliner

 F#m      E       A
 Berlin,  city of night
    C#m               F#m
You sleep between the east and west
 D                 C#7
Along the left and right
 F#m    E             A
Broken, kept from the light
    C#m                 F#m
You close your eyes and everything
 D                  C#7
Remains in black and white
 F#m     E             A
Berlin,  when will you fight
   C#m                 F#m
The mind that draws the border
      D               C#7
No one crosses in the city of night

      B7

E|---------2------------4---|
B|---------4------------6---|
G|---------2------------4---|
D|---------4------------6---|
A|---------2------------4---|
E|--------------------------|
Compositor não encontrado.
Colaboração e revisão:
  • nazareth40
55 exibições
    • ½ Tom
    • Am
    • Bbm
    • Bm
    • Cm
    • C#m
    • Dm
    • Ebm
    • Em
    • Fm
    • F#m
    • Gm
    • G#m
  • Adicionar à lista

    0 comentários

    Ver todos os comentários

    Conseguiu tocar?

    1 Tocaram 0 Ainda não

    Grave um vídeo tocando Berlin City Of Night e nos envie!

    00:00 / 00:00
    Outros vídeos desta música
    Repetir Qualidade Automático
    Outros vídeos desta música
    00:00 / 00:00
    Automático

    Cifra Club Pro

    Aproveite o Cifra Club com benefícios exclusivos e sem anúncios
    Cifra Club Pro
    Aproveite o Cifra Club com benefícios exclusivos e sem anúncios
    OK