Cifra Club

Aprenda

Delírio

Secos & Molhados

Cifra: Completa (violão e guitarra)
Tom: G
E|-----------0-------------0---------------0----------------------------------------------
B|-5---5--5--3---------5-----7------5---5/-3---3/12--12/--5---5/-3---------5------5-------
G|-7---7--7--0-2/3-3---7-------7----7---7/-0---x-----9/---7---7/-0-----5~~~--5------5-----
D|-5---5--5--2-0---2---5------------5---5/-2--(2)/--------5---5/-2-----7~~-----7------7---
A|-7---7--7--3-2/3-3---7------------7---7/-3--(3)/--------7---7/-3-----5~~----------------
E|-0---0--0------------0------------0---------------------0---0---------------------------

E|--------------------------7/--------3-3--------2--2-------0---2-------3--3----x---------
B|--5--5/7--10-10-10--8--7--7/--------3---3------2--2---0---0-----0-----3----3--2---------
G|--7--7/9--12-12-10--9--5------------0-----0----3------2---2-------2---0-------0---------
D|--5--------------------7------2-----0----------4------0---0-----------0-------2-2-2-2-2-
A|--7--------------------5------2-----2----------4------2---0-----------2-------0-2-2-2-2-
E|--0---------------------------0-----3-------3--2----------------------3---------0-0-0-0-

E|--------------2--3--
B|--------------2--3--
G|--------------3--0--
D|-2p0---0------4--0--
A|-----2---0-1--4--2--
E|--------------2--3--

( C7  Em7 )

Em7
Não vou buscar

A esperança
    C7
Na linha do horizonte
Em7
Nem saciar

A sede do futuro
D7(9)
Da fonte do passado
        Em7
Nada espero
E tudo quero
C7
Sou quem toca
          D7
Sou quem dança
            Em7
Quem na orquestra

Desafina
G
Quem delira
         F#
Sem ter febre
Bm
Só o par
Bm/A
E o parceiro
G            A7
Das verdades
Em
À desconfiança
Composição de Gerson Conrad / Paulinho Mendonça
Colaboração e revisão:
  • Franco
298 exibições
    • ½ Tom
    • A
    • Bb
    • B
    • C
    • Db
    • D
    • Eb
    • E
    • F
    • F#
    • G
    • Ab
  • Adicionar à lista

    0 comentários

    Mostrar mais comentários

    Conseguiu tocar?

    1 Tocaram 0 Ainda não

    Grave um vídeo tocando Delírio e mande pra gente!

    00:00 / 00:00
    outros vídeos desta música
    repetir qualidade Automático
    Outros vídeos desta música
    00:00 / 00:00
    Automático
    OK