Cifra Club

Aprenda

Live Again

Sevendust

Tab de baixo: Principal
B, E, A, D



 
(0:00) Intro
D|------------------------------------------------------------------------|
A|------------------------------------------------------------------------|
E|------------------------------------------------------------------------|
B|0-0----0-0--------0-0----0-0--------0-0----0-0--------0-0----0-0--------|

 
(0:10) Verse  Feeling nothing 
D|- -- -- -- -----------------------------------------------------------------------------|
A|10-10-10-10-7-----------9-9-9-9-5-----------10-10-10-10-7-----------9-9-9-9-5-----------|
E|- -- -- -- -----------------------------------------------------------------------------|
B|- -- -- -- -----------------------------------------------------------------------------|

 
(0:20) Verse  You try to walk away 
D|- -- -- -- -----------------------------------------------------------------------------|
A|10-10-10-10-7-----------9-9-9-9-5-----------10-10-10-10-7-----------9-9-9-9-5-----------|
E|- -- -- -- -----------------------------------------------------------------------------|
B|- -- -- -- -----3---2---------------------------------------3---2-----------------------|

 
(0:31) Prechorus  In this world i see it more 
D|------------------------------------------------|
A|------------------------------------------------|  x 2
E|3--3--3--3--3--3--3--3--------------2--2--2--2--|
B|------------------------3--3--3--3--------------|

 
(0:41) Prechorus 
D|------------------------------------------------|
A|------------------------------------------------|
E|------------------------2--2--2--2--2--2--2-----|
B|5--5--5--5--5--5--5--5--------------------------|

 
(0:46) Chorus  You see my face, and then you see nothing 
D|------------------------------------------------------------------------------------------------|
A|------------------------------------------------------------------------------------------------|
E|------------------------2--2--2--2--2--2--2--2--3--3--3--3--3--3--3--3\-------------------------|
B|0--0--0--0--0--0--0--0--------------------------------------------------3--3--3--3--5--5--5--5--|

 
(0:57) Chorus  I turn my face, you're starin back at me 
D|------------------------------------------------------------------------------------------------|
A|------------------------------------------------------------------------------------------------|
E|------------------------2--2--2--2--2-----2--5--3--3--3--3--3--3--3--3\-------------------------|
B|0--0--0--0--0--0--0--0-----------------0--------------------------------3--3--3--3--5--5--5--5--|

 
(1:07) Bridge
D|- -------------------------------------------------------------------------|
A|- -------------------------------------------------------------------------|
E|- -------------------------------------------------------------------------|
B|12\0-0----0-0--------0-0----0-0--------0-0----0-0--------0-0----0-0--------|

 
(1:18) Verse  Can't see me, you feel me 
D|- -- -- -- -----------------------------------------------------------------------------|
A|10-10-10-10-7-----------9-9-9-9-5-----------10-10-10-10-7-----------9-9-9-9-5-----------|
E|- -- -- -- -----------------------------------------------------------------------------|
B|- -- -- -- -----------------------------------------------------------------------------|

 
(1:28) Verse  I'll be your everything 
D|- -- -- -- -----------------------------------------------------------------------------|
A|10-10-10-10-7-----------9-9-9-9-5--99---7---10-10-10-10-7-----------9-9-9-9-5---99---7--|
E|- -- -- -- -----------------------------------------------------------------------------|
B|- -- -- -- -----3---2---------------------------------------3---2-----------------------|

 
(1:38) Prechorus  In this world, i see you more 
D|------------------------------------------------|
A|------------------------------------------------|  x 2
E|3--3--3--3--3--3--3--3--------------2--2--2--2--|
B|------------------------3--3--3--3--------------|

 
(1:49) Prechorus 
D|------------------------------------------------|
A|------------------------------------------------|
E|------------------------2--2--2--2--2--2--2-----|
B|5--5--5--5--5--5--5--5--------------------------|

 
(1:54) Chorus  You see my face and then you see nothing 
D|------------------------------------------------------------------------------------------------|
A|------------------------------------------------------------------------------------------------|
E|------------------------2--2--2--2--2--2--2--2--3--3--3--3--3--3--3--3\-------------------------|
B|0--0--0--0--0--0--0--0--------------------------------------------------3--3--3--3--5--5--5--5--|

 
(2:04) Chorus  I turn my face, you're staring back at me 
D|----------------------- --------------------------------------------------------------------------|
A|----------------------- --------------------------------------------------------------------------|
E|---------------9------10-\2--2--2--2--2--2--2--2--3--3--3--3--3--3--3--3\-------------------------|
B|0--0--0--0--0---------- -------------------------------------------------3--3--3--3--5--5--5--5--\|

 
(2:15) Bridge 
D|------------------------------------------------------------------------|
A|------------------------------------------------------------------------|
E|------------------------------------------------------------------------|
B|0-0----0-0--------0-0----0-0--------0-0----0-0--------0-0----0-0--------|

 
(2:25) Interlude  How many times have you looked at yourself...  
D|------------------------------------------------------------------------------------------------|
A|------------------------------------------------------------------------------------------------|
E|------------------------2-----------------------3-----------------------------------------------|
B|0-----------------------------------------------------------------------3-----------5-----------|

 
(2:36) Interlude  All of your life you've been led to believe you're nothing 
D|------------------------------------------------------------------------------------------------|
A|------------------------4---------4---------4---------------------------------------------------|
E|-----------------------------2---------2--------2--3--------------------------------------------|
B|0-----------------------------------------------------------------------3-----------5-----------|

 
(2:46) Chorus  You see my face and then you see nothing 
D|----------------------- ------------------------------------------------ -------------------------|
A|----------------------- ------------------------------------------------ -------------------------|
E|---------------9------10-\2--2--2--2--2--2--2--2--3--3--3--3--3/9------10-------------------------|
B|0--0--0--0--0---------- ------------------------------------------------ -3--3--3--3--5--5--5--5--|

 
(2:57) Chorus  I turn my face, you're staring back at me 
D|----------------------- ------------------------------------------------ -------------------------|
A|----------------------- ------------------------------------------------ -------------------------|
E|---------------9------10-\2--2--2--2--2-----2--5--3--3--3--3--3/9------10-------------------------|
B|0--0--0--0--0---------- -----------------0------------------------------ -3--3--3--3--5--5--5--5--|

 
(3:07) Chorus  If you don't change you'll be nothin 
D|------------------------------------------------------------------------------------------------|
A|------------------------4-----4-----4-----4-----------------------------------------------------|
E|---------------------------2-----2-----2-----2--3--3--3--3--3--3--3--3\-------------------------|
B|0--0--0--0--0--0--0--0--------------------------------------------------3--3--3--3--5--5--5--5--|

 
(3:18) Chorus  I turn my face, you're starin back at me 
D|----------------------- ------------------------------------------------ -------------------------|
A|----------------------- ------------------------------------------------ -------------------------|
E|---------------9------10-\2--2--2--2--2--2--2--2--3--3--3--3--3/9------10-------------------------|
B|0--0--0--0--0---------- ------------------------------------------------ -3--3--3--3--5--5--5--5--|

 
(3:28) Outro
D|------------------------------------------------------------------------------------------------|
A|------------------------4-----4-----4-----4-----5-----5-----5-----5-----------------------------|
E|---------------------------2-----2-----2-----2-----3-----3-----3-----3\-------------------------|
B|0--0--0--0--0--0--0--0--------------------------------------------------3--3--3--3--5--5--5--5--|

 
(3:39) Outro
D|------------------------------------------------------------------------------------------------|
A|------------------------------------------------------------------------------------------------|
E|------------------------2--2--2--2--2--2--2--2-/3--3--3--3--3--3--3--3\-------------------------|
B|0--0--0--0--0--0--0--0-/------------------------------------------------3--3--3--3-/5--5--5--5--|
Composição de John Connolly / Morgan Rose / Sevendust
503 exibições

0 comentários

Ver todos os comentários

Conseguiu tocar?

0 Tocaram 0 Ainda não

Grave um vídeo tocando Live Again e nos envie!

00:00 / 00:00
outros vídeos desta música
repetir qualidade Automático
Outros vídeos desta música
00:00 / 00:00
Automático

Cifra Club Pro

Aproveite o Cifra Club com benefícios exclusivos e sem anúncios
Cifra Club Pro
Aproveite o Cifra Club com benefícios exclusivos e sem anúncios
OK