Cifra Club

Algo Parecido

Skank

Cifra: Principal (violão e guitarra)
Selo Cifra Club: esta cifra foi revisada para atender aos critérios oficiais da nossa Equipe de Qualidade.
tom: Ab (forma dos acordes no tom de G) Capotraste na 1ª casa
[Intro] G  C9

[Primeira Parte]

G
  Escorre o tempo que seguro

E cabe em minhas mãos

Eu empresto o meu mundo

Pra te ter então
C9
   Você vai acreditar talvez

Ou senão queira partir de vez

( G  C9 )

G
  E se eu falasse nessas coisas

Que vejo em você

Me atravessam num segundo

Sem eu entender
C9
   E tudo que me faz ver

E tudo que me faz ter

[Pré-Refrão]

   Am
Aquilo que eu sinto por você
              D6(9)
Parece ser maior
          Am
Que o destino que me passa
                           D6(9)
E te passa e há de ser um só

Bm7                             Em7
    A gente é diferente quando sente
Am7
    Mas pode ser que mesmo assim
D7(4)           D7
      A gente até se ajeite

[Refrão]

G
  Você bem que podia vir comigo

Para além do final dessa rua
C9
   Do outro lado da cidade
             G   C9 (SOLO)
Ou algo parecido

[TAB - Solo]
Parte 1 de 2

E|-----------------------------------------------------|
B|-----------------------------------------------------|
G|-------------4-------------4-------------------------|
D|----5-5---6-------5-5---6----------------------------|
A|-----------------------------------------------------|
E|-----------------------------------------------------|
Parte 2 de 2

E|-----------------------------------------------------|
B|-----------------------------------------------------|
G|-4-5p4---------4-5p4---------------------------------|
D|-------6-5-----------6-5----------5------------------|
A|-----------------------------5h7---------------------|
E|-----------------------------------------------------|

( G  C9 )

[Segunda Parte]

G
  Estou livre com seu passo

E aperto sua mão

Que me mostra o caminho 

Pra te ter então
C9
   Com você quero partir de vez

Sem destino e sem lugar talvez

G
  Despreocupo com futuro 

Que ninguém prevê

O que entristece tento esquecer
C9
   Isso tanto faz

Isso já não faz mal

[Pré-Refrão]

   Am
Aquilo que eu sinto por você
              D6(9)
Parece ser maior
          Am
Que o destino que me passa
                           D6(9)
E te passa e há de ser um só

Bm7                             Em7
    A gente é diferente quando sente
Am7
    Mas pode ser que mesmo assim
D7(4)           D7
      A gente até se ajeite

[Refrão]

G
  Você bem que podia vir comigo

Para além do final dessa rua
C9
   Do outro lado da cidade
             G
Ou algo parecido

G
  Você bem que podia vir comigo

Para além do final dessa rua
C9
   Pra outro lado da cidade
               G   C9 (SOLO)
A gente é parecido

G
  Você bem que podia vir comigo

Para além do final dessa rua
C9
   O outro lado da cidade
             G
Ou algo parecido

G
  Você bem que podia vir comigo

Para além do final dessa rua
C9
   Pra outro lado da cidade
               G
A gente é parecido

G
  Você bem que podia vir comigo

Para além do final dessa rua
C9
   O outro lado da cidade
             G
Ou algo parecido

G
  Você bem que podia vir comigo

Para além do final dessa rua
C9
   Pra outro lado da cidade

A gente é parecido

[TAB - Solo]
Parte 1 de 2

E|-----------------------------------------------------|
B|-----------------------------------------------------|
G|-------------4-------------4-------------------------|
D|----5-5---6-------5-5---6----------------------------|
A|-----------------------------------------------------|
E|-----------------------------------------------------|
Parte 2 de 2

E|-----------------------------------------------------|
B|-----------------------------------------------------|
G|-4-5p4---------4-5p4---------------------------------|
D|-------6-5-----------6-5----------5------------------|
A|-----------------------------5h7---------------------|
E|-----------------------------------------------------|
Outros vídeos desta música
    441.114 exibições
    • Simplificar cifra
      • ½ Tom
      • A
      • Bb
      • B
      • C
      • Db
      • D
      • Eb
      • E
      • F
      • F#
      • G
      • Ab
    • Adicionar à lista

    Afinação da cifra

    Afinador online

      0 comentários

      Ver todos os comentários

      Entre para o Cifra Club PRO

      Tenha acesso a benefícios exclusivos no App e no Site

      • Chega de anúncios

      • Badges exclusivas

      • Mais recursos no app do Afinador

      • Atendimento Prioritário

      • Aumente seu limite de lista

      • Ajude a produzir mais conteúdo

      Cifra Club Pro

      Aproveite o Cifra Club com benefícios exclusivos e sem anúncios
      Cifra Club Pro
      Aproveite o Cifra Club com benefícios exclusivos e sem anúncios
      Ops (: Contenido disponible sólo en portugués.
      OK