Cifra Club

I Remember You

Skid Row

Tab de baixo: Principal
exibições 11.370
[Introdução]

G|----------------------------------------------|
D|----------------------------------------------|
A|---3--3-----------3--3------------------------|
E|-3------5--3--3h5------5----------------------|

[Primeira parte] 

Woke up to soothing sound of pouring rain...

Parte 1 de 2
G|----------------------------------------------|
D|----------------------------------------------|
A|-------3--3-----------3--3--------------------|
E|-3-3h5------5--3--3h5------5------------------|

G|----------------------------------------------|
D|----5-----------------------------------------|
A|-5----5-5--3-3--------------------------------|
E|----------------------------------------------|

Parte 2 de 2
G|----------------------------------------------|
D|----------------------------------------------|
A|--------3-3--3-----------3-3--3-----------3-3-|
E|-3--3h5--------5--3--3h5--------5--3--3h5-----|

G|----------------------------------------------|
D|----------------------------------------------|
A|-3-2-3-4--5-0-5-5-0-5-3-0-3-3-0-3-5-0-5-5-0-5-|
E|----------------------------------------------|

G|----------------------------------------------|
D|----------------------------------------------|
A|-3-0-3-0-3-3-3-3------------------------------|
E|----------------------------------------------|


[Refrão] 

Remember yesterday, walking hand in hand...
G|----------------------------------------------|
D|----------------------------------------------|
A|----------5--5-5-3--------3-3-3h5-3-3---------|
E|-3-3--0-3----------0-0--0---------------------|

G|----------------------------------------------|
D|----------------------------------------------|
A|----------5--5-5-3--------3---3---------------|
E|-3-3--0-3----------0-0--0---------------------|


[Introdução 2]

G|----------------------------------------------|
D|----------------------------------------------|
A|------------3-3--3-----------3-3--------------|
E|-3--3-0-3-0--------3-3-0-3-0------------------|


[Segunda parte]

Wished ever after would be like this...
G|----------------------------------------------|
D|----------------------------------------------|
A|----------3-3--3------------3-3-3-----------3-|
E|-3-3--3h5--------5-3-3--3h5-------5-3-3-3h5---|

G|----------------------------------------------|
D|----------------------------------------------|
A|-3-3-2-3-4--5-0-5-5-0-5-3-0-3-3-0-3-5-0-5-5-0-|
E|----------------------------------------------|

G|----------------------------------------------|
D|----------------------------------------------|
A|-5--3-0-3-0-3-3-3-3---------------------------|
E|----------------------------------------------|


[Refrão 2]

Remember yesterday, walking hand in hand...
G|----------------------------------------------|
D|----------------------------------------------|
A|----------5--5-5-3--------3-3-3h5-3-3---------|
E|-3-3--0-3----------0-0--0---------------------|

G|----------------------------------------------|
D|----------------------------------------------|
A|----------5--5-5-3---------3------------------|
E|-3-3--0-3----------0-0--0-----0-10\-----------|

G|----------------------------------------------|
D|-----5--5-5-5-----5--5-5-5--5-4---------------|
A|--------------------------------7-5-----------|
E|-3-------------3------------------------------|


[Terceira parte]

We've had our share of hard times...
G|----------------------------------------------|
D|----------------------------------------------|
A|------3-2----------3-2-----------3-2-0--------|
E|-5--5-----5-3-0--0-----5-3--5--5--------------|

G|----7-----5-----4-----5-----7-----------------|
D|-0----0-0---0-0---0-0---0-0---0-0-0-----------|
A|------------------------------------5-5-5-5---|
E|----------------------------------------------|

G|----------------------------------------------|
D|----------------------------------------------|
A|-5-5-5-5--5-5-5-5--5-5-5----------------------|
E|-------------------------0--------------------|


[Solo de Guitarra]

G|----------------------------------------------|
D|----------------------------------------------|
A|---------3--3-3--------3--3-3--------3--3-3---|
E|-3-3-0-3--------3--3-3--------3--3-3----------|

G|----------------------------------------------|
D|----------------------------------------------|
A|-2-3-4--5--5-5-0-5--3-3-0-3--5-5-0-5--3-3--3--|
E|----------------------------------------------|


[Introdução 3]
G|----------------------------------------------|
D|----------------------------------------------|
A|---------3-------3----------------------------|
E|-3-0-3-0---3-0-3----3-------------------------|


[Quarta parte] 

Woke up to soothing sound of pouring rain...
G|-------------7------------------5---7-5-------|
D|---------7h9---9-7\---------5h7---7-----7-5---|
A|-5-0-5-5-------------3--3-3-------------------|
E|----------------------------------------------|

G|------------7\--------------------------------|
D|--------7h9-----------------------------------|
A|-5--5-5---------3-----------------------------|
E|----------------------------------------------|


[Refrão 3]

Remember yesterday, walking hand in hand...

Parte 1 de 3 (3x)
G|----------------------------------------------|
D|----------------------------------------------|
A|----------5--5-5-3--------3-3-3h5-3-3---------|
E|-3-3--0-3----------0-0--0---------------------|

Parte 2 de 3
G|----------------------------------------------|
D|----------------------------------------------|
A|----------5--5-5-3--------3-0-3-3-3--3-3------|
E|-3-3--0-3----------0-0--0---------------------|

Parte 3 de 3
G|----------------------------------------------|
D|----------------------------------------------|
A|-----5--5-5-3--------3-3-3h5-3-3--------------|
E|-3-3----------0-0--0--------------------------|

G|----------------------------------------------|
D|----------------------------------------------|
A|----------5--5-5-3--------3-------------------|
E|-3-3--0-3----------0-0--0---------------------|


[Introdução 4 - Final]

G|----------------------------------------------|
D|---------------5-------------5----------------|
A|--------3--5h7----7\--3--5h7---7-5\-----------|
E|-3--3h5------------------------------3--------|
Composição: Dave The Snake Sabo / Rachel BolanColaboração e revisão:
  • Reginaldo Costa

0 comentários

    mostrar mais comentários

    Conseguiu tocar?

    0tocaram0ainda não

    Grave um vídeo tocando I Remember You e mande pra gente!

    00:00 / 00:00
    outros vídeos desta música
    repetirqualidadeautomática
    Outro vídeos desta música
      00:00 / 00:00
      automática
      Capítulos
      • Tocando a música
      • Apresentação / Equipamentos
      • Introdução
      • Primeira Parte - Parte 1 de 2
      • Primeira Parte - Parte 2 de 2
      • Refrão
      • Introdução 2
      • Segunda Parte
      • Refrão 2
      • Terceira Parte
      • Solo de guitarra
      • Introdução 3
      • Quarta Parte
      • Refrão 3 - Parte 1 de 3
      • Refrão 3 - Parte 2 de 3
      • Refrão 3 - Parte 3 de 3
      • Introdução 4 (Final)
      • Encerramento
      OK