Cifra Club

Yours to Hold

Skillet

Cifra: Principal (violão e guitarra)
Selo Cifra Club: esta cifra foi revisada para atender aos critérios oficiais da nossa Equipe de Qualidade.
tom: D
 D                    G
I see you standing here
Bm            A   G
But you're so far away
D                       G
Starving for your attention
Bm             A       G
You don't even know my name

Bm                      A
You're going through so much
                D/F#           G
But I know that I could be the one to hold you

Refrão:
D
Every single day
Em
I find it hard to say
Bm         A9       G
I could be yours alone
D
You will see someday
Em
That all along the way
Bm    A9         G
I was yours to hold
                   D
I was yours to hold

Solo:
E|---------------------------------------------------------------------------------------------                                                      
B|-------10-----------------------10--------------------10-------------------------------------
G|-----7----7-9~-11-11b12r11~---7----7-6~-9-9b11r9~---7----7-9~-11-11b12r11~--11b12r11-9--7~~-- 
D|---------------------------------------------------------------------------------------------                      
A|---------------------------------------------------------------------------------------------                      
E|---------------------------------------------------------------------------------------------
Solo de Fundo:
E|-----------------------------------------------                                             
B|-----------10---------------10-----10----------        
G|---------7----9--9/12-11--7----7-6----6-4~~----  (2x)
D|-----------------------------------------------                                            
A|-----------------------------------------------
E|-----------------------------------------------
                                              
Verso 2: 
D                  G
I see you walking by
Bm               A           G
Your hair always hiding your face
D                          G
I wonder why you've been hurting
Bm               A        G
I wish I had some way to say
Bm                      A
You're going through so much
                     D/F#         G
Don't you know that I will be the one to hold you

Refrão:

D
Every single day
Em
I find it hard to say
Bm         A9       G
I could be yours alone
D
You will see someday
Em
That all along the way
Bm    A9         G
I was yours to hold
      D
I was yours to hold

Ponte:
G                          Bm          A
I'm stretching but you're just out of reach
              G
You should know
                      D        A
I'm ready when you're ready for me
D/F#                    G
And I'm waiting for the right time
        A                G
For the day I catch your eye
D/F#       G
To let you know
         A        G
That I'm yours to hold

(Refrão 2x)

Dedilhado final
E|---------------------------------------0----
B|---------------3-------------3--------------             
G|-----------0-------0------------4--------2-- 
D|-------------2---2----2----4---------2------   (2x)
A|--------2----------------2--------0---------       
E|--------------------------------------------
Outros vídeos desta música
    66.625 exibições
      • ½ Tom
      • A
      • Bb
      • B
      • C
      • Db
      • D
      • Eb
      • E
      • F
      • F#
      • G
      • Ab
    • Adicionar à lista

    Afinação da cifra

    Afinador online

      0 comentários

      Ver todos os comentários

      Entre para o Cifra Club PRO

      Tenha acesso a benefícios exclusivos no App e no Site

      • Chega de anúncios

      • Badges exclusivas

      • Mais recursos no app do Afinador

      • Atendimento Prioritário

      • Aumente seu limite de lista

      • Ajude a produzir mais conteúdo

      Cifra Club Pro

      Aproveite o Cifra Club com benefícios exclusivos e sem anúncios
      Cifra Club Pro
      Aproveite o Cifra Club com benefícios exclusivos e sem anúncios
      Ops (: Contenido disponible sólo en portugués.
      OK