Cifra Club

Destroyer

Static-X

Tab de baixo: Principal
Bassist:Tony Campos
Regurlar tuning


intro/verse 1 no bass

(take it down with a steam hammer)

verse 2 repeat X2
(Wreck a party like it dont matter)
[-----------------------------------]
[-----------------------------------]
[-----------------------------------]
[--2-2-2-2-2-2-------2---2-2-2-2-2--]


Chorus repeat X3              pre verse
[---------------------------/-----------]
[---------------------------/-----------]
[--2-2-2-2-2------/5-------/---1-0-1-0--]
[--------------------------/------------]


verse 3 & 4
[-----------------------------------]
[-----------------------------------]
[-----------------------------------]
[--2-2-2-2-2-2-------2---2-2-2-2-2--]


Chorus
Chorus repeat X3             post solo
[---------------------------/--------------]
[--------------------------/---------------]
[--2-2-2-2-2------/5-------/----1----------]
[-------------------------/--1-------------]


solo                do till third chorus
[------------------------------------]
[------------------------------------]
[--------------------1--3------------]
[--2h4--2h4---2h3--------------------]

Chorus

Outro/verse
00:00 / 00:00
Outros vídeos desta música
Repetir
Outros vídeos desta música
Composição de Static-X
878 exibições

0 comentários

Ver todos os comentários

Entre para oCifra Club PRO

Tenha acesso a benefícios exclusivos no App e no Site

  • Chega de anúncios

  • Prioridade de compra em lançamentos

  • Mais recursos no app do Afinador

  • Atendimento Prioritário

  • Descontos nos produtos Cifra Club

  • Ajude a produzir mais conteúdo

00:00 / 00:00

Cifra Club Pro

Aproveite o Cifra Club com benefícios exclusivos e sem anúncios
Cifra Club Pro
Aproveite o Cifra Club com benefícios exclusivos e sem anúncios
OK