Cifra Club

Aprenda

Dizer

Sugar Kane

Tab de baixo: Principal
Já pensou em usar uma coleção de roupas do Cifra Club? Responda as perguntas abaixo e nos ajude nessa missão! →
Sugar Kanee - Dizer

[intro] 4x
(E G# A F#)
----------------------------------
----------------------------------
-7-7-7-7--------------------------
---------4-4-4-4--5-5-5-5-2-2-2-2-
 E       G#       A       F#


[verso]	4x "Não vou dizer..."
----------------------------------
----------------------------------
-7-7-7-7--------------------------
---------4-4-4-4--5-5-5-5-5-5-5-5-
 E       G#       A

[intro] 2x
(E G# A F#)


[verso]	4x "Também não sei..."
(E G# A )


[brigde] "Só seu olhar..."
---------------------------------
---------------------------------
-4-4-4-4---------7-7-7-7---------
---------5-5-5-5---------7-7-7-7-
 C#      A       E       B 

"Se seu amor..."
------------------------------------
-------------------------7h9-9-9-9--
-4-4-4-4---------7-7-7-7------------
---------5-5-5-5--------------------
 C#      A       E       AhB 

"Agora eu vou..."
---6---6----------6----9---9---------8----
-----6------7---7--------9-----9---9------
-4------------7-------7----------9--------
----------5-------------------7-----------
 C#       A           E       B 
[intro]
(E G# A F#)


[verso] 4x "Ter futuro ou não..."
(E G# A )


[brigde]
(C# A E B)


[intro] - até acabar a música
(E G# A F#)

Formiga
 icq - 145303237

_______________________________________________________
Composição de Capilé
Colaboração e revisão:
  • Arthur Fuscella
1.403 exibições

0 comentários

Ver todos os comentários

Conseguiu tocar?

0 Tocaram 0 Ainda não

Grave um vídeo tocando Dizer e nos envie!

00:00 / 00:00
Outros vídeos desta música
Repetir Qualidade Automático
Outros vídeos desta música
00:00 / 00:00
Automático

Cifra Club Pro

Aproveite o Cifra Club com benefícios exclusivos e sem anúncios
Cifra Club Pro
Aproveite o Cifra Club com benefícios exclusivos e sem anúncios
OK