Cifra Club

Life Is Strange Main Theme

Syd Matters

Cifra: Principal (violão e guitarra)
tom: F (forma dos acordes no tom de D) Capotraste na 3ª casa
Violão 1:
E|-------5-----5-----5-----5-----5-----5-----5-----5|
B|-----6-----6-----6-----6-----6-----6-----6-----6--|
G|--------------------------------------------------|
D|--------------------------------------------------|
A|--------------------------------------------------|
E|--------------------------------------------------|
(Essa segunda parte pode ser usada no violão 2, se for ser usada, toque a primeira parte 2 vezes, na segunda vez que for tocada, comece a segunda parte)
E|--------------------------------------------------|
B|-------6-----6-----6-----6-----6-----6-----6-----6|
G|-----5-----5-----5-----5-----5-----5-----5-----5--|
D|--------------------------------------------------|
A|--------------------------------------------------|
E|--------------------------------------------------|

(D A D A)

"refrão"
(D Bm F#m A D
 Bm A)

(D A D A)

"refrão"
(D Bm F#m A D
 Bm F#m A D G Em A)

(D A D A)

Só repetir tudo!

Violão 2:

E|--------------------------------------------------|
B|-------6-----6-----6-----6-----6-----6-----6-----6|
G|-----5-----5-----5-----5-----5-----5-----5-----5--|  
D|--------------------------------------------------|
A|--------------------------------------------------|
E|--------------------------------------------------|

Quando o violão 1 tocar a nota A, o violão 2 fará:
E|--------------------------------------------------|
B|----------5---------------------------------------|
G|-----5--------------------------------------------|
D|--------------------------------------------------|
A|--------------------------------------------------|
E|--------------------------------------------------|

Na parte do refrão, o violão 2 fará o seguinte:
E|--------------------------------------------------|
B|--------10--6--5----5h6---------------------------|
G|------------------5-------------------------------|
D|--------------------------------------------------|
A|--------------------------------------------------|
E|--------------------------------------------------|

E|--------------------------------------------------|
B|--------10--6--5----5h6---------------------------|
G|--------------------------------------------------|
D|--------------------------------------------------|
A|--------------------------------------------------|
E|--------------------------------------------------|
00:00 / 00:00
Outros vídeos desta música
Repetir
Outros vídeos desta música
Compositor não encontrado.
Colaboração e revisão:
  • Fabricio Galvao
9.566 exibições
    • ½ Tom
    • A
    • Bb
    • B
    • C
    • Db
    • D
    • Eb
    • E
    • F
    • F#
    • G
    • Ab
  • Adicionar à lista

    0 comentários

    Ver todos os comentários

    Conseguiu tocar?

    4 Tocaram 3 Ainda não

    Grave um vídeo tocando Life Is Strange Main Theme e nos envie!

    Entre para oCifra Club PRO

    Tenha acesso a benefícios exclusivos no App e no Site

    • Chega de anúncios

    • Prioridade de compra em lançamentos

    • Mais recursos no app do Afinador

    • Atendimento Prioritário

    • Descontos nos produtos Cifra Club

    • Ajude a produzir mais conteúdo

    00:00 / 00:00

    Cifra Club Pro

    Aproveite o Cifra Club com benefícios exclusivos e sem anúncios
    Cifra Club Pro
    Aproveite o Cifra Club com benefícios exclusivos e sem anúncios
    OK