Cifra Club

Atirei o Pau no Gato (tab)

Temas Infantis

Cifra: Principal
exibições 227.204
Tom: C

E|3-1-0---0-1-3-3-3--5-3-1-1-1--3-1-0-0-0|
B|------3--------------------------------|
G|---------------------------------------|
D|---------------------------------------|
A|---------------------------------------|
E|---------------------------------------|


E|--0-5-5-5--7-5-3-3-3--0-1-3--0-1-3--0-1-3-1-0----|
B|3---------------------------------------------3-1|
G|-------------------------------------------------|
D|-------------------------------------------------|
A|-------------------------------------------------|
E|-------------------------------------------------|


-----------------------------------
Outra Forma de Tocar:
-----------------------------------



E|-12-10-9----9-10-12-12-12|
B|---------12--------------|
G|-------------------------|
D|-------------------------|
A|-------------------------|
E|-------------------------|


E|-14-12-10-10-10|
B|---------------|
G|---------------|
D|---------------|
A|---------------|
E|---------------|


E|-12-10-9-9-9-|
B|-------------|
G|-------------|
D|-------------|
A|-------------|
E|-------------|


E|----12-14-14-14-16-14-12-12-12|
B|-10---------------------------|
G|------------------------------|
D|------------------------------|
A|------------------------------|
E|------------------------------|


E|9-10-12---9-10-12---9-10-12---10-9-------|
B|------------------------------------12-10|
G|-------------------------------|
D|-------------------------------|
A|-------------------------------|
E|-------------------------------|
Acordes para:
    Colaboração e revisão:
    • nina soares

    0 comentários

      mostrar mais comentários

      Conseguiu tocar?

      27tocaram1ainda não

      Grave um vídeo tocando Atirei o Pau no Gato (tab) e mande pra gente!

      00:00 / 00:00
      outros vídeos desta música
      repetirqualidadeautomática
      Outro vídeos desta música
        00:00 / 00:00
        automática
        OK