Notificações Amigos pendentes

      Temas Infantis

      Atirei o Pau no Gato (tab)

      195.373 exibições
      Tom: C
      
      e|3-1-0---0-1-3-3-3--5-3-1-1-1--3-1-0-0-0|
      B|------3--------------------------------|
      G|---------------------------------------|
      D|---------------------------------------|
      A|---------------------------------------|
      E|---------------------------------------|
      
      
      e|--0-5-5-5--7-5-3-3-3--0-1-3--0-1-3--0-1-3-1-0----|
      B|3---------------------------------------------3-1|
      G|-------------------------------------------------|
      D|-------------------------------------------------|
      A|-------------------------------------------------|
      E|-------------------------------------------------|
      
      
      -----------------------------------
      Outra Forma de Tocar:
      -----------------------------------
      
      
      
      e|-12-10-9----9-10-12-12-12|
      B|---------12--------------|
      G|-------------------------|
      D|-------------------------|
      A|-------------------------|
      E|-------------------------|
      
      
      e|-14-12-10-10-10|
      B|---------------|
      G|---------------|
      D|---------------|
      A|---------------|
      E|---------------|
      
      
      e|-12-10-9-9-9-|
      B|-------------|
      G|-------------|
      D|-------------|
      A|-------------|
      E|-------------|
      
      
      e|----12-14-14-14-16-14-12-12-12|
      B|-10---------------------------|
      G|------------------------------|
      D|------------------------------|
      A|------------------------------|
      E|------------------------------|
      
      
      e|9-10-12---9-10-12---10-9-------|
      B|--------------------------12-10|
      G|-------------------------------|
      D|-------------------------------|
      A|-------------------------------|
      E|-------------------------------|
      

      Comentários 6

      140 .
      • mau2003 mau2003: Em 05/08/2015 12:41


        e|3-1-0---0-1-3-3-3--5-3-1-1-1--3-1-0-0-0|
        B|------3--------------------------------|
        G|---------------------------------------|
        D|--------

      • mau2003 mau2003: Em 05/08/2015 12:40

        é hummmm

      • leo247 leo247: Em 23/11/2011 21:33

        O comeco da versao 1 e o mesmo comeco da A barata diz que tem

        • powerjohn powerjohn: Em 29/12/2011 10:43

          é verdade (eu nao tinha percebido)

        • tsqueiros tsqueiros: Em 06/02/2014 16:09

          percebi desde quando aprendi e depois eu vi a tablatura da barata e vi que era igual

      • nescau1 nescau1: Em 22/08/2011 17:26

        mt facil para aprender.

      140 cancelar

      conseguiu tocar?

      • •••

      covers

      Grave um vídeo tocando Atirei o Pau no Gato (tab) e mande pra gente!

      Ex.: http://www.youtube.com/watch?v=0IvSvIwGdwk
      ver covers de outras músicas »
      0:00 / 0:00

      Capítulos

        1 versão de violão dificuldade exibições contribuição e correção
        1 versão de guitarra dificuldade exibições contribuição e correção
        1 versão de cavaco dificuldade exibições contribuição e correção
        1 versão de teclado dificuldade exibições contribuição e correção
        2 versões de Guitar Proformatodownloadscontribuição
        1 versão de partiturasformatodownloadscontribuição
        play/pausefechar subir/descer velocidade
        6ª corda E5ª corda A4ª corda D3ª corda G2ª corda B1ª corda E
          acordes
          publicidade
          fechar
          ok