Cifra Club

Into the pit

Testament

Tab de baixo: Principal
intro fiff
|---------------------------------------------------|
|----------7p6--------------------------6------7-6--|
|--------------------8p7--5-------8p7-5---8-7------8|
|---0--00------0--00--------0--00-------------------|
Hold last note on fifth time

then fill 1
|-----------------|
|-----------------|
|------------7-7--|
|-0-0-000-0-------|

Riff 2           x3  ____________1. _______________2.
|-------------------|--------------|----------------|
|----------------6-5|--------------|----------------|
|------------5h7----|-----------7-7|------------7---|
|--0-0-000-0--------|-0-0-000-0----|-0-0-000-0--0---|

Verse Riff                                    x4
|---------------------------------------------------|
|---------------------------------------------------|
|----7---5h7---5h7---7/8-8--------------------------|
|*|

Then
|---------------------------------------------------|
|---------------------------------------------------|
|----------------------------then fill 1  ----------|
|-0-0-0-0-0-0-0-0-0-0-0-0-0-------------------------|
  . . . . . . . . . . . . .

Chorus
|---------------------------------------------------|
|---------------------------------------------------|
|2----------0----1------------------------2---------|
|-0-0-3-0-0--0-0---0000-1-0-0-5-0-3-5-0-3---5-3-5-3-|

Fill 2
|---------------------------------------------------|
|---------------------------------------------------|
|------------0------1-------------------------------|
|---0----3------------------------------------------|

Guitar solo paly verse riff 4x then play
                  _____________1&3     __________2&4
|----------------|----------------|-----------------|
|----------------|----------------|-----------------|
|----------------|------3-2-------|------4-----3-2--|
|-0-000-00-000-0-|--1-1-----------|---2-2--2-1------|


the rest of the song pretty much repeats. everything else is on this tab already. should 
easy to figure out
Composição de Alex Skolnick / Chuck Billy / Eric Peterson
410 exibições

0 comentários

Ver todos os comentários

Conseguiu tocar?

0 Tocaram 0 Ainda não

Grave um vídeo tocando Into the pit e nos envie!

00:00 / 00:00
Outros vídeos desta música
Repetir Qualidade Automático
Outros vídeos desta música
00:00 / 00:00
Automático

Cifra Club Pro

Aproveite o Cifra Club com benefícios exclusivos e sem anúncios
Cifra Club Pro
Aproveite o Cifra Club com benefícios exclusivos e sem anúncios
OK