Cifra Club

Aprenda

While My Guitar Gently Weeps

The Beatles

Cifra: Fingerstyle (violão e guitarra)
Quer fazer aulas de música com a gente? Responda essas perguntas
e nos ajude nesse projeto! →
tom: Cm (forma dos acordes no tom de Gm) Capotraste na 5ª casa
E|-1-----1---------1---------1---------|
B|-3---3---3-3---3---3-3---3---2-2---2-|
G|-2-2-----2-2-2-----2-2-2-----3-3-3---|
D|-0-------0---------------------------|
A|-----------3-------3-2-------2-1-----|
E|-------------------------------------|

e|0----1---0h1p0----------------1-----1|
B|--2--3---------3-2-----1------3---3--|
G|--3--2-2---------0---0---0----2-2----|
D|-----0-----------2-2-------2--0------|
A|--1--------------3-------------------|
E|-------------------------------------|

E|---1-|
B|-3-3-|
G|---2-|
D|---0-|
A|-----|
E|-----|

E|---------0---1-------------0h1-------|
B|---3---3-------3-----3---------3-----|
G|-2---2-------------2---2-----------2-|
D|---0-------0-------------------------|
A|-----------------3-------3-------2---|
E|-------------------------------------|

E|--0---1---3---1-----------1-----5---1|
B|3---------------3-------3------------|
G|------------------2---2-------2---2--|
D|----------------------------0-------0|
A|----2-------1-------1----------------|
E|-------------------------------------|

E|-----0-------------------------------|
B|---3--------------3-1-3--------------|
G|-2----------0---------------0-------0|
D|----------2---2-----------0---0---0--|
A|--------3-------3-------2-------2----|
E|-------------------------------------|

E|-------------|
B|-------------|
G|-------2-----|
D|-0---2---2---|
A|---0-------0-|
E|-------------|

E|---------0---1-------------0h1-------|
B|---3---3-------3-----3---------3-----|
G|-2---2-------------2---2-----------2-|
D|---0-------0-------------------------|
A|-----------------3-------3-------2---|
E|-------------------------------------|

E|--0---1---3---1-----------1-----5---1|
B|3---------------3-------3------------|
G|------------------2---2-------2---2--|
D|----------------------------0-------0|
A|----2-------1-------1----------------|
E|-------------------------------------|

E|-----0----------------|
B|---3--------------3-1-|
G|-2----------0---------|
D|----------2---2-------|
A|--------3-------3-----|
E|----------------------|

E|-1-----1---------1---------1---------|
B|-3---3---3-3---3---3-3---3---2-2---2-|
G|-2-2-----2-2-2-----2-2-2-----3-3-3---|
D|-0-------0---------------------------|
A|-----------3-------3-2-------2-1-----|
E|-------------------------------------|

e|0----1---0h1p0----------------1-----|
B|--2--3---------3-2-----1------3---3-|
G|--3--2-2---------0---0---0----2-2---|
D|-----0-----------2-2-------2--0-----|
A|--1--------------3------------------|
E|------------------------------------|

e|0h1p0---------------1-|
B|------3-2-----1-----3-|
G|--------0---0---3---2-|
D|--------0-2-------2-0-|
A|--------3-------------|
E|----------------------|
Composição de George Harrison
Colaboração e revisão:
  • Brian Kaique
228 exibições
  • Simplificar cifra
    • ½ Tom
    • Am
    • Bbm
    • Bm
    • Cm
    • C#m
    • Dm
    • Ebm
    • Em
    • Fm
    • F#m
    • Gm
    • G#m
  • Adicionar à lista

    0 comentários

    Ver todos os comentários

    Conseguiu tocar?

    0 Tocaram 1 Ainda não

    Grave um vídeo tocando While My Guitar Gently Weeps e nos envie!

    00:00 / 00:00
    Outros vídeos desta música
    Repetir Qualidade Automático
    Outros vídeos desta música
    00:00 / 00:00
    Automático
    Capítulos
    • Tocando a Música
    • Apresentação / Equipamentos
    • Acordes da Introdução
    • Tocando Introdução
    • Ritmo da Introdução
    • Acordes da Primeira Parte
    • Tocando Primeira Parte
    • Acordes do Refrão
    • Tocando Refrão
    • Ritmo do Refrão
    • Encerramento

    Cifra Club Pro

    Aproveite o Cifra Club com benefícios exclusivos e sem anúncios
    Cifra Club Pro
    Aproveite o Cifra Club com benefícios exclusivos e sem anúncios
    OK