Cifra Club

Kid

The Pretenders

Tab de baixo: Principal
Intro & Verse 1 & 2 (walking bass line rhythm play this x4)
G-------------------------------------|
D-----------------2-------------------|
A---3-2-0---0-2-3-------0-3-2-0-------|
E---------3---------1-3---------3-1---|

G----------------------------------------------------------------|
D----------------------------------------------------------------|
A---2h3333333-33333333---00000000-00000000---55555555-55555555---|
E----------------------------------------------------------------|

G-----------------------|
D-----------------------|
A-----------------------|
E---33333333-33333333---|

Repeat Intro & Verse x3:

Bridge 1 & Lead into Key Change:
G----------------------------------------------------------------|
D----------------------------------------------------------------|
A----------------------------------------------------------------|
E---5-5---3---1-111111---5-5---3---1-111111---5-5---3-1-111111---|

G----------------------------------------------------------------|
D----------------------------------------------------------------|
A------------------------77777777---44444444----------22222222---|
E---11111111-33333333------------------------22222222------------|

G------------------------------------------------|
D------------------------------------------------|
A---77777777---44444444--------------22222222----|
E-------------------------22222222---------------|

Bridge 2 & Solo:
G--------------------------------------------------------------------|
D--------------------------------------------------------------------|
A---------------------44444444-44444444-------------------22222222---|
E---00000000-00000000-------------------22222222-22222222------------|

G---------------------------------------------------------------|
D---------------------------------------------------------------|
A---22222222---77777777-77777777---44444444-44444444------------|
E----------------------------------------------------22222222---|

G--------------------------------|
D--------------------------------|
A------------22222222-22222222---|
E---22222222---------------------|

Verse 3: (Walking bass line rhythm play this x2)
G-----------------1-------------------|
D---2-1-------1-2---------2-----------|
A-------4-2-4-------0-2-4---2-0-------|
E-------------------------------4-2---|

G------------------------------------------------------------|
D------------------------------------------------------------|
A---77777777-77777777---44444444-44444444--------------------|
E----------------------------------------22222222-22222222---|

G----------------------------------------------------66666666---|
D---------------------------------------------------------------|
A---22222222-22222222---77777777-77777777---44444444------------|
E---------------------------------------------------------------|

G---------------------------------------------|
D---44444444-44444-2-1------------------------|
A---------------------4---22222222-22222222---|
E---------------------------------------------|

Repeat this to Fade/End:
G------------------------------------------------------------|
D------------------------------------------------------------|
A---77777777-77777777---44444444-44444444--------------------|
E----------------------------------------22222222-22222222---|

G-----------------------|
D-----------------------|
A---22222222-22222222-
00:00 / 00:00
Outros vídeos desta música
Repetir
Outros vídeos desta música
Composição de Chrissie Hynde
Colaboração e revisão:
  • Vania santo
40 exibições

0 comentários

Ver todos os comentários

Conseguiu tocar?

0 Tocaram 0 Ainda não

Grave um vídeo tocando Kid e nos envie!

Entre para oCifra Club PRO

Tenha acesso a benefícios exclusivos no App e no Site

  • Chega de anúncios

  • Prioridade de compra em lançamentos

  • Mais recursos no app do Afinador

  • Atendimento Prioritário

  • Descontos nos produtos Cifra Club

  • Ajude a produzir mais conteúdo

00:00 / 00:00

Cifra Club Pro

Aproveite o Cifra Club com benefícios exclusivos e sem anúncios
Cifra Club Pro
Aproveite o Cifra Club com benefícios exclusivos e sem anúncios
OK