Cifra Club

Aprenda

Get off my cloud

The Rolling Stones

Tab de baixo: Principal
                                                                     I
g-----|-----|--------------|--------------|--------------|--------------|
d-----|-----|--------7--7--|--9--9--7--7--|--------7--7--|--9--9--7--7--|
a-----|-----|--7--7--------|--------------|--7--7--------|--------------|
e-----|-----|--------------|--------------|--------------|--------------|

   live on...             ninty...              block                               and I
   telephone...           it's me...            line?                                  a
   sick and...                                                                   it was...
|----------------------|---------------------|---------------------|----------------------|
|*--------6--7------7--|--9---9--7--6-----6--|--------6--7------7--|--9---9---7--6-----6--|
|*-7---9---------9-----|---------------9-----|--7--9---------9-----|----------------9-----|
|----------------------|---------------------|---------------------|----------------------|

   sit at...               imagin...             stopped...
   voice says...           guess...              
                           nobody...
|-----------------------|---------------------|-----------------------|---------------------|
|---------6---7------7--|--9---9--7--6-----6--|---------6---7------7--|--9---9--7--6-----6--|
|--7---9----------9-----|---------------9-----|--7---9----------9-----|---------------9-----|
|-----------------------|---------------------|-----------------------|---------------------|

|-----------------------|---------------------|-----------------------|---------------------|
|---------6---7------7--|--9---9--7--6-----6--|---------6---7------7--|--9---9--7--6-----6--|
|--7---9----------9-----|---------------9-----|--7---9----------9-----|---------------9-----|
|-----------------------|---------------------|-----------------------|---------------------|

|-----------------------|---------------------|-----------------------|---------------------|
|---------6---7------7--|--9---9--7--6-----6--|---------6---7------7--|--9---9--7--6-----6--|
|--7---9----------9-----|---------------9-----|--7---9----------9-----|---------------9-----|
|-----------------------|---------------------|-----------------------|---------------------|

|--------------------------|--------------------------|
|--------------6--6--6--6--|--7--7--7--7--9--9--9--9--|
|--7--7--7--7--------------|--------------------------|
|--------------------------|--------------------------|

|--------------------------|--------------------------|
|--------------6--6--6--6--|--7--7--7--7--9--9--9--9--|
|--7--7--7--7--------------|--------------------------|
|--------------------------|--------------------------|

|--------------------------|--------------------------|
|--------------6--6--6--6--|--7--7--7--7--9--9--9--9--|
|--7--7--7--7--------------|--------------------------|
|--------------------------|--------------------------|

                                                       1,2______________________________
   don't hang...              two's a...
|--7--7--7--7--7--7--7--7--|--------------------------|----------------|----------------|
|--------------------------|--9--9--9--9--9--9--9--9--|----------7--7--|--9---9---7--7-*|
|--------------------------|--------------------------|--7---7---------|---------------*|
|--------------------------|--------------------------|----------------|----------------|

 3________
|--------------------------|--------------------------|
|*-------------6--6--6--6--|--7--7--7--7--9--9--9--9--|
|*-7--7--7--7--------------|--------------------------|
|--------------------------|--------------------------|

|--------------------------|--------------------------|
|--------------6--6--6--6--|--7--7--7--7--9--9--9--9--|
|--7--7--7--7--------------|--------------------------|
|--------------------------|--------------------------|

|--------------------------|--------------------------|--7--7--7--7--7--7--7--7--|
|--------------6--6--6--6--|--7--7--7--7--9--9--9--9--|--------------------------|
|--7--7--7--7--------------|--------------------------|--------------------------|
|--------------------------|--------------------------|--------------------------|

|--------------------------|
|--9--9--9--9--9--9--9--9-*|
|-------------------------*|
|--------------------------|
Composição de Keith Richards / Mick Jagger
Colaboração e revisão:
  • valdir júnior
211 exibições

0 comentários

Mostrar mais comentários

Conseguiu tocar?

0 Tocaram 0 Ainda não

Grave um vídeo tocando Get off my cloud e mande pra gente!

00:00 / 00:00
outros vídeos desta música
repetir qualidade Automático
Outros vídeos desta música
00:00 / 00:00
Automático

Cifra Club Pro

Aproveite o Cifra Club com benefícios exclusivos e sem anúncios
7 dias grátis
Cifra Club Pro
Aproveite o Cifra Club com benefícios exclusivos e sem anúncios
7 dias grátis
OK