Cifra Club

Ill Take You There

The Staple Singers

Tab de baixo: Principal
Standard Tuning: EADG
Tabbey By: RTBM


Intro: 2x
G|-------|
D|--3----|
A|---3---|
E|-------|

Main Part: Loop (Play till Bass solo)
G|------------------------|
D|--------------3---------|
A|-3-3----3---------3-----|
E|-----1-3-5-3-1-3-5-5----|


Bass Solo
G|----/14-12-----------------------------/14-12---------------------|
D|-/14------15------12-10--8-10h12-10-/14------15------12-10--------|
A|------------15--12----10-----------------------15--12----10-------|
E|--------------13--------8------------------------13--------8-8-8--|

Main Part: Loop (Play Till end)
G|------------------------|
D|--------------3---------|
A|-3-3----3---------3-----|
E|-----1-3-5-3-1-3-5-5----|
00:00 / 00:00
Outros vídeos desta música
Repetir
Outros vídeos desta música
Composição de Alvertis Isbell
393 exibições

0 comentários

Ver todos os comentários

Entre para oCifra Club PRO

Tenha acesso a benefícios exclusivos no App e no Site

  • Chega de anúncios

  • Prioridade de compra em lançamentos

  • Mais recursos no app do Afinador

  • Atendimento Prioritário

  • Descontos nos produtos Cifra Club

  • Ajude a produzir mais conteúdo

00:00 / 00:00

Cifra Club Pro

Aproveite o Cifra Club com benefícios exclusivos e sem anúncios
Cifra Club Pro
Aproveite o Cifra Club com benefícios exclusivos e sem anúncios
OK