Cifra Club

Photography

The Starting Line

Tab de baixo: Principal
Based On A True Story
2005 Geffen Records
Submitted by: *

Bass Tab

Key: D

Tuning: Drop D

Post Chorus:
G|----------------------------------------------------------------|
D|----------------------------------------------------------------|
A|-----------------10-12-10-9--5----------------------------------|
D|-0-0-0-0-0-0-0-0----------------9-9-9-9-9-9-9-9-9-11-12-9-11-12-|
then
G|---------------------------------|
D|---------------------0-----0-5-4-|
A|-------------------2-----2-------|
D|-5-5-5-5-5-5-5-5-5-----5---------|


Verse 2: The sunlight's overwhelming the scene...
G|-----------------------------------------------------------------|
D|-----------------------------------------------------------------|
A|-----------------5-5-5-5-4-5-7-5-2-2-2-2-2-2-2-2-2-4-5-2-4-5-2-2-|
D|-0-0-0-0-0-0-0-0-------------------------------------------------|

And our finest moments...
G|-----------------------------------|
D|-----------------------------------|
A|-----------------5---5---5---5---5-|
D|-5-5-5-5-5-5-5-5---5---5---5---5---|


And amazing illusion was made...
G|-----------------------------------------------------------------|
D|-----------------------------------------------------------------|
A|-----------------5-5-5-5-5-5-7-5-2-2-2-2-2-2-2-2-2-2-2-2-2-2-2-2-|
D|-0-0-0-0-0-0-0-0-------------------------------------------------|

It seems like you're really you're really...
G|-----------------------------------|
D|-----------------------------------|
A|-----------------5---5---5---5---5-|
D|-5-5-5-5-5-5-5-5---5---5---5---5---|

It seems like you're realy here...
G|-------------|
D|-------------|
A|-------------|
D|-2-2-2-4-4-4-|


Chorus: Very fast here
G|---------------|-----------2-4-|
D|-----5-----5---|-------4-2-----|
A|---5-----5---5-|-2-4-5---------| (x4)
D|-5-----5-------|---------------|
        x2               x2


Bridge:
G|-------------------------------------------0-0-0-|---------------|
D|-------------------------------------0-0-0-------|---------------|
A|-------------------0-0-0-2-2-2-4-4-4-------------|-------0(hold)-|
D|-2-2-2-4-4-4-5-5-5-------------------------------|-2-2-2---------|
                   x2


While doing the violin orchestra and guitar solo
G|-------------------------------------------------------------------------|
D|---------------------------------------4---4-----------------------------|
A|-----------------2-2-2-2-2-2-2-2-2-4-5---5---2----------5-7-5------------| (x2)
D|-0-0-0-0-0-0-0-0-------------------------------5-5--5-5-------5-5--5-5-5-|
then
G|-------------|
D|-------------|
A|-------------|
D|-2-2-2-4-4-4-|
00:00 / 00:00
Outros vídeos desta música
Repetir
Outros vídeos desta música
Compositor não encontrado.
953 exibições

0 comentários

Ver todos os comentários

Entre para oCifra Club PRO

Tenha acesso a benefícios exclusivos no App e no Site

  • Chega de anúncios

  • Prioridade de compra em lançamentos

  • Mais recursos no app do Afinador

  • Atendimento Prioritário

  • Descontos nos produtos Cifra Club

  • Ajude a produzir mais conteúdo

00:00 / 00:00

Cifra Club Pro

Aproveite o Cifra Club com benefícios exclusivos e sem anúncios
Cifra Club Pro
Aproveite o Cifra Club com benefícios exclusivos e sem anúncios
OK