Cifra Club

Aprenda

Seven Nation Army

The White Stripes

Tab de baixo: Versão 11
G|----------------------|  
D|-------5--------------|  
A|-7---7---7--5---------| 
E|---------------8--7---|  Fica nesse Riff por um bom tempo...

G|----------------------|
D|----------------------|
A|----------------------|
E|333333333-555555555---| Depois esse Riff uma vez

G|----------------------|  
D|-------5--------------|  
A|-7---7---7--5---------| 
E|---------------8--7---| volta pra essa parte...

G|------------------------|  
D|-------5----------------|  
A|-7---7---7--5----5------| 
E|---------------8---8-7--|  Quando ele mudo fica assim

G|----------------------|  
D|-------5--------------|  
A|-7---7---7--5---------| 
E|---------------8--7---| Ai volta pra esse Riff


Tocando assim fica facil pois tu nao mexe muito com a mao...
com um pouco de treino fica facil de tocar com o Baixo nas costas...

Espero te ajudado...
Composição de Jack White
Colaboração e revisão:
  • Vinicius Neves
353 exibições

0 comentários

Mostrar mais comentários

Conseguiu tocar?

0 Tocaram 0 Ainda não

Grave um vídeo tocando Seven Nation Army e mande pra gente!

00:00 / 00:00
outros vídeos desta música
repetir qualidade Automático
Outros vídeos desta música
00:00 / 00:00
Automático
Capítulos
  • Tocando a música
  • Apresentação / Equipamentos
  • TAB - Introdução
  • TAB - Primeira parte - Parte 1 de 2
  • TAB - Primeira parte - Parte 2 de 2
  • TAB - Refrão instrumental 1 - Parte 1 de 2
  • TAB - Refrão instrumental 1 - Parte 2 de 2
  • TAB - Refrão instrumental 4 - Parte 1 de 2
  • TAB - Refrão instrumental 4 - Parte 2 de 2
  • Encerramento

Cifra Club Pro

Aproveite o Cifra Club com benefícios exclusivos e sem anúncios
Cifra Club Pro
Aproveite o Cifra Club com benefícios exclusivos e sem anúncios
OK