Cifra Club

Aprenda

Seven Nation Army

The White Stripes

Tab de baixo: Principal
[Introdução]

Parte 1 (2x)
G|----------------------------------------------|
D|-2-2-5-2--------2-2-5-2-----------------------|
A|---------5-3-2----------5-3-2-----------------|
E|----------------------------------------------|


[Primeira parte]

I'm going to fight them off...

Parte 1 de 2 (4x)
G|----------------------------------------------|
D|-2-2-5-2--------2-2-5-2-----------------------|
A|---------5-3-2----------5-3-2-----------------|
E|----------------------------------------------|

Parte 2 de 2
G|----------------------------------------------|
D|----------------------------------------------|
A|----------------------------------------------|
E|-3-3-3-3--3-3-3-3--5-5-5-5--5-5-5-5-----------|


[Refrão Instrumental 1]

Parte 1 (2x)
G|----------------------------------------------|
D|----------------------------------------------|
A|-7-7-10-7---------7-7-10-7--------------------|
E|----------10-8-7-----------10-8-8/10-8-7-5----|

Parte 02 de 02
G|----------------------------------------------|
D|----------------------------------------------|
A|----------------------------------------------|
E|-3-3-3-3--3-3-3-3--5-5-5-5--5-5-5-5-----------|


[Introdução 2]

Parte 1 (2x)
G|----------------------------------------------|
D|-2-2-5-2--------2-2-5-2-----------------------|
A|---------5-3-2----------5-3-2-----------------|
E|----------------------------------------------|


[Segunda parte]

Don't want to hear about it...

Parte 1 de 2 (4x)
G|----------------------------------------------|
D|-2-2-5-2--------2-2-5-2-----------------------|
A|---------5-3-2----------5-3-2-----------------|
E|----------------------------------------------|

Parte 2 de 2
G|----------------------------------------------|
D|----------------------------------------------|
A|----------------------------------------------|
E|-3-3-3-3--3-3-3-3--5-5-5-5--5-5-5-5-----------|


[Refrão Instrumental 2]

Parte 1 de 2 (4x)
G|----------------------------------------------|
D|----------------------------------------------|
A|-7-7-10-7---------7-7-10-7--------------------|
E|----------10-8-7-----------10-8-8/10-8-7-5----|

Parte 2 de 2
G|----------------------------------------------|
D|----------------------------------------------|
A|----------------------------------------------|
E|-3-3-3-3--3-3-3-3--5-5-5-5--5-5-5-5-----------|


[Introdução 3]

Parte 1 (2x)
G|----------------------------------------------|
D|-2-2-5-2--------2-2-5-2-----------------------|
A|---------5-3-2----------5-3-2-----------------|
E|----------------------------------------------|


[Terceira parte]

I'm going to Wichita...

Parte 1 de 2 (4x)
G|----------------------------------------------|
D|-2-2-5-2--------2-2-5-2-----------------------|
A|---------5-3-2----------5-3-2-----------------|
E|----------------------------------------------|

Parte 2 de 2
G|----------------------------------------------|
D|----------------------------------------------|
A|----------------------------------------------|
E|-3-3-3-3--3-3-3-3--5-5-5-5--5-5-5-5-----------|


[Refrão Instrumental 3]
 
Parte 1 de 2 (4x)
G|----------------------------------------------|
D|----------------------------------------------|
A|-7-7-10-7---------7-7-10-7--------------------|
E|----------10-8-7-----------10-8-8/10-8-7-5----|

Parte 2 de 2

G|----------------------------------------------|
D|--------14------------------------------------|
A|-7--7/12--------------------------------------|
E|------------12\-------------------------------|
Composição de Jack White
Colaboração e revisão:
97.956 exibições

0 comentários

Mostrar mais comentários

Conseguiu tocar?

63 Tocaram 2 Ainda não

Grave um vídeo tocando Seven Nation Army e mande pra gente!

00:00 / 00:00
outros vídeos desta música
repetir qualidade Automático
Outros vídeos desta música
00:00 / 00:00
Automático
Capítulos
  • Tocando a música
  • Apresentação / Equipamentos
  • TAB - Introdução
  • TAB - Primeira parte - Parte 1 de 2
  • TAB - Primeira parte - Parte 2 de 2
  • TAB - Refrão instrumental 1 - Parte 1 de 2
  • TAB - Refrão instrumental 1 - Parte 2 de 2
  • TAB - Refrão instrumental 4 - Parte 1 de 2
  • TAB - Refrão instrumental 4 - Parte 2 de 2
  • Encerramento

Cifra Club Pro

Aproveite o Cifra Club com benefícios exclusivos e sem anúncios
Cifra Club Pro
Aproveite o Cifra Club com benefícios exclusivos e sem anúncios
OK