Cifra Club

Aprenda

Blue Orchid

The White Stripes

Cifra: Principal (violão e guitarra)
Tom: G
              A5     G5     C5      D5   Eb5    E5
        E|-----------------------------------------
        B|-----------------------------------------
        G|------------------5------7------8------9-
        D|----7------5------5------7------8------9-
        A|----7------5-----------------------------
        E|-----------------------------------------
        
        RIFF 1:
        E|------------------------------------
        B|------------------------------------
        G|-------------5------------5-7-8-9---
        D|------7--5-7-5-5---7--5-7-5-7-8-9---
        A|------7--5-7---5---7--5-7-----------
        E|------------------------------------

        RIFF 2:
        E|-------------------------------------
        B|-------------------------------------
        G|---8-7-5---8-7-5---8-7-5-------------
        D|---8-7-5-5-8-7-5-7-8-7-5-7-7-7-7-5---
        A|---------5-------7-------7-7-7-7-5---
        E|-------------------------------------

         RIFF 3:
        E|----------------------------------------
        B|------8-7-5---8-7-5---8-7-5-------------
        G|------8-7-5-5-8-7-5-7-8-7-5-7-7-7-7-5---
        D|------------5-------7-------7-7-7-7-5---
        A|----------------------------------------
        E|----------------------------------------


RIFF 1
        
You got a reaction 
You got a reaction didn't, you? 
You took a white orchid 
You took a white orchid turned it blue 
Something better than nothing 
Something better than nothing, it's giving up 
We all need to do something 
Try keep the truth from showing up 

RIFF 2

How dare you 
How old are you now, anyway? 
How dare you 
How old are you now, anyway? 
How dare you 
How old are you now, anyway? 

RIFF 1

You're given a flower 
But I guess there's just no pleasing you 
Your lips tastes sour 
But you think that it's just me teasing you 
You got a reaction 
You got a reaction, didn't you? 
You took a white orchid 
You took a white orchid turned it blue 

RIFF2

Get behind me 
Get behind me now, anyway 
Get behind me 
Get behind me now, anyway 

RIFF 3

Get behind me
Get behind me now, anyway

RIFF 1

You got a reaction 
You got a reaction, didn't you? 
You took a white orchid 
You took a white orchid turned it blue 
Composição de Jack White III
32.550 exibições
    • ½ Tom
    • A
    • Bb
    • B
    • C
    • Db
    • D
    • Eb
    • E
    • F
    • F#
    • G
    • Ab
  • Adicionar à lista

    0 comentários

    Mostrar mais comentários

    Conseguiu tocar?

    5 Tocaram 0 Ainda não

    Grave um vídeo tocando Blue Orchid e mande pra gente!

    00:00 / 00:00
    outros vídeos desta música
    repetir qualidade Automático
    Outros vídeos desta música
    00:00 / 00:00
    Automático

    Cifra Club Pro

    Aproveite o Cifra Club com benefícios exclusivos e sem anúncios
    Cifra Club Pro
    Aproveite o Cifra Club com benefícios exclusivos e sem anúncios
    OK