Cifra Club

Warsaw

Them Crooked Vultures

Cifra: Principal (violão e guitarra)
tom: Bb
(intro) (0:00 - 0:26)
E |---------------------------------------------|---------------------------|
B |---------------------------------------------|---------------------------|
G |---------------------------------------------|---------------------------|
D |-xxx---x-xx----------------------------------|-----------------------(X2)|
A |-xxx---x-xx----------------------------------|--6--5---------------------|
E |-xxx---x-xx--5----8--5---8------5----8--5---8|--------8--5--8--5--8------|

E |--------------------------------------------------------------------|
B |--------------------------------------------------------------------|
G |--------------------------------------------------------------------|
D |--------------------------------------------------------------------|
A |----------5--------------4h5~ -----------------6--5-----------------|
E |--5----8-----5--8--5--8------------5--8--5--8--------8--5--8--5--8--|

E |----------------------------------|
B |----------------------------------|
G |----------------------------------|
D |---------------7------------------|
A |--7--7--9--10-----9--10--7--9-----|
E |-------------------------------8--|

(chorus) (0:26-1:00) repeat 2x

E |----------------------------|---------------------------|------------------------------|
B |----------------------------|---------------------------|------------------------------|
G |---------------7--7---------|---------------7--7--9-----|---------------7--7-----------|
D |--7--7/10--10--7--7--7--(x2)|--7--7-10--10--7--7--9--7--|--7--7-10--10--7--7--7-x------|
A |--7--7-10--10--5--5--7------|--7--7-10--10--5--5--7--7--|--7--7-10--10--5--5--7-x------|
E |--5--5-8---8---------5------|--5--5-8---8------------5--|--5--5-8---8---------5-x--|| -|

E |------------------------------|--------------------------------------------------------|
B |------------------------------|--------------------------------------------------------|
G |---------------7--7--9--------|---------------7--7-------------------------------------|
D |--7--7/10--10--7--7--9--7-(X2)|--7--7-10--10--7--7--7-x--------------------------------|
A |--7--7-10--10--5--5--7--7-----|--7--7-10--10--5--5--7-x--------------------------------|
E |--5--5-8---8------------5-----|--5--5-8---8---------5-x--------------------------------|

E |----------------------------------|
B |----------------------------------|
G |----------------------------------|
D |---------------7------------------|
A |--7--7--9--10-----9--10--7--9-----|
E |-------------------------------8--|

(verse)  (1:00-1:37)
E |--------------------|--------------------|--------------------|--------------------|
B |--------------------|--------------------|--------------------|--------------------|
G |--12--12--12--12----|--11--11--11--11----|--10--10--10--10----|--7--7--5-5-5--7--7-|
D |--12--12--12--12--X2|--11--11--11--11--X2|--10--10--10--10--X2|--7--7--5-5-5--7--7-|X2
A |--10--10--10--10----|--9---9---9---9-----|--8---8---8---8-----|--5--5--3-3-3--5--5-|
E |--------------------|--------------------|--------------------|--------------------|

then start over again
00:00 / 00:00
Outros vídeos desta música
Repetir
Outros vídeos desta música
Composição de Them Crooked Vultures
Colaboração e revisão:
  • Vinicius Moreira
653 exibições
    • ½ Tom
    • A
    • Bb
    • B
    • C
    • Db
    • D
    • Eb
    • E
    • F
    • F#
    • G
    • Ab
  • Adicionar à lista

    0 comentários

    Ver todos os comentários

    Entre para oCifra Club PRO

    Tenha acesso a benefícios exclusivos no App e no Site

    • Chega de anúncios

    • Prioridade de compra em lançamentos

    • Mais recursos no app do Afinador

    • Atendimento Prioritário

    • Descontos nos produtos Cifra Club

    • Ajude a produzir mais conteúdo

    00:00 / 00:00

    Cifra Club Pro

    Aproveite o Cifra Club com benefícios exclusivos e sem anúncios
    Cifra Club Pro
    Aproveite o Cifra Club com benefícios exclusivos e sem anúncios
    OK