Cifra Club

Mind Eraser, No Chaser

Them Crooked Vultures

Cifra: Principal (violão e guitarra)
tom: A
(intro / verse)

|--------------------------------------------------------|
|--------------------------------------------------------|
|--------------------------------------------------------|
|-------------4--2--------7------------------------------|
|---3h4h3h4---------------7------------------------------|
|-------------------------5------------------------------|

No idea how to play the solo, so we'll just skip over that for now.

(chorus)
(Rapidly pick this part, don't feel like typing out every note)
|-----------------------------------------------------------|
|-----------------------------------------------------------|
|-----------------------------------------------------------|
|-----------------------------------------------------------|
|---9---12--------------------------------------------------|
|-----------------------------------------------------------|

Part right after the chorus: (again, pick rapidly, listen to song for length, etc.)

|-----------------------------------------------------------|
|-----------------------------------------------------------|
|-----------------------------------------------------------|
|-----------------------------------7-----------7-----------|
|---99999999-7777777-6666666--6-6h7---6---6-6h7-------------|
|-----------------------------------------------------------|

That part towards the end is a little awkward, but listen for it and you'll get it down.

00:00 / 00:00
Outros vídeos desta música
Repetir
Outros vídeos desta música
Composição de Them Crooked Vultures
Colaboração e revisão:
  • Vinicius Moreira
1.870 exibições
    • ½ Tom
    • A
    • Bb
    • B
    • C
    • Db
    • D
    • Eb
    • E
    • F
    • F#
    • G
    • Ab
  • Adicionar à lista

    0 comentários

    Ver todos os comentários

    Entre para oCifra Club PRO

    Tenha acesso a benefícios exclusivos no App e no Site

    • Chega de anúncios

    • Prioridade de compra em lançamentos

    • Mais recursos no app do Afinador

    • Atendimento Prioritário

    • Descontos nos produtos Cifra Club

    • Ajude a produzir mais conteúdo

    00:00 / 00:00

    Cifra Club Pro

    Aproveite o Cifra Club com benefícios exclusivos e sem anúncios
    Cifra Club Pro
    Aproveite o Cifra Club com benefícios exclusivos e sem anúncios
    OK