Cifra Club

Herdeiros do Futuro

Toquinho

Cifra: Principal (violão e guitarra)
Selo Cifra Club: esta cifra foi revisada para atender aos critérios oficiais da nossa Equipe de Qualidade.
tom: A
[Intro] F9  C  F9  C
        F9  C  F  G  C

[Tab - Intro]

E|--------3-1-0-3----0------------------------------|
B|------1--------------1-----1----------------------|
G|----2-------------------0----0--------------------|
D|--3-----------------------------------------------|
A|----------------3---------------------------------|
E|--------------------------------------------------|

E|--------3-1-0-----------0-------------------------|
B|------1-------1-------1---1-----------------------|
G|----2---------------0-------0---------------------|
D|--3---------------2-------------------------------|
A|----------------3---------------------------------|
E|--------------------------------------------------|

E|--------3-1-0-3----0------------------------------|
B|------1--------------1-----1----------------------|
G|----2-------------------0----0--------------------|
D|--3-----------------------------------------------|
A|----------------3---------------------------------|
E|--------------------------------------------------|

E|-----------------------0--------0-----0--------0--|
B|-----1-0-----3-1-----1-------1------1-------1-----|
G|--2----------------0------0-------0------0--------|
D|--------------------------------------------------|
A|----------------3------------3--------------------|
E|--1------3-----------3--------------3-------------|

   C                          F
A vida é uma grande amiga da gente
     C                      C7
Nos dá tudo de graça pra viver
 F     G    Em   Am
Sol e céu, luz e ar
 D7             G7
Rios e fontes, terra e mar
 C                       F
Somos os herdeiros do futuro
C                        C7
E pra esse futuro ser feliz

 F     G    Em    Am  D7     G7  C  C7
Vamos ter que cuidar bem desse país
 F     G    Em    Am  D7     G7  C
Vamos ter que cuidar bem desse país

   G                        C
Será que no futuro haverá flores ?
   E7                            Am
Será que os peixes vão estar no mar ?
   F                         Em
Será que os arco íris terão cores
      D7                     G
E os passarinhos vão poder voar ?
   G7                            C
Será que a terra vai seguir nos dando
    E7                          Am
O fruto, a folha, o caule e a raiz ?
   F                         Em  Am
Será que a vida acaba encontrando
    D7           G           C  C7
Um jeito bom da gente ser feliz ?

 F     G    Em    Am  D7     G7  C  C7
Vamos ter que cuidar bem desse país
 F     G    Em    Am  D7     G7  C
Vamos ter que cuidar bem desse país

   G                        C
Será que no futuro haverá flores ?
   E7                            Am
Será que os peixes vão estar no mar ?
   F                         Em
Será que os arco íris terão cores
      D7                     G
E os passarinhos vão poder voar ?
   G7                            C
Será que a terra vai seguir nos dando
    E7                          Am
O fruto, a folha, o caule e a raiz ?
   F                         Em  Am
Será que a vida acaba encontrando
    D7           G           C  C7
Um jeito bom da gente ser feliz ?

 F     G    Em    Am  D7     G7  C  C7
Vamos ter que cuidar bem desse país
 F     G    Em    Am  D7     G7  F9 C
Vamos ter que cuidar bem desse país
00:00 / 00:00
Outros vídeos desta música
Repetir
Outros vídeos desta música
44.875 exibições
    • ½ Tom
    • A
    • Bb
    • B
    • C
    • Db
    • D
    • Eb
    • E
    • F
    • F#
    • G
    • Ab
  • Adicionar à lista

Afinação da cifra

Afinador online

    0 comentários

    Ver todos os comentários

    Entre para o Cifra Club PRO

    Tenha acesso a benefícios exclusivos no App e no Site

    • Chega de anúncios

    • Mais recursos no app do Afinador

    • Atendimento Prioritário

    • Aumente seu limite de lista

    • Ajude a produzir mais conteúdo

    00:00 / 00:00

    Cifra Club Pro

    Aproveite o Cifra Club com benefícios exclusivos e sem anúncios
    Cifra Club Pro
    Aproveite o Cifra Club com benefícios exclusivos e sem anúncios
    OK