Cifra Club

Aprenda

Witching Hour

Venom

Cifra: Versão 2 (violão e guitarra)
tom: E
Tabbed by: McNuggets100
Email: * 

Tuning: C#,G#,E,B,F#,C#

It is very easy and simple to play, unlike
my other tab I have made; Blackened by Metallica.
If you like this tab check Blackened out.
Please rate this tab highly. 

Intro:            Main Riff:
C#|---------|     |---------------------------------------------------------|
G#|---------|     |---------------------------------------------------------|
 E|--9-7-9--|     |---------------------------------------------------9-7-9-|
 B|--9-7-9--|     |---------------------------------------------------9-7-9-|
F#|--7-5-7--|     |---------------------------------------------------7-5-7-|
C#|---------|     |-0-0-0-0-0-0-0-0-0-0-0-0-0-0-0-0-0-0-0-0-0-0-0-0-0-------|

Chorus:                                Riff 2:
C#|---------------------------------|  |-----------------------------------------|
G#|---------------------------------|  |-----------------------------------------|
 E|-5--------5--4--2--------2-------|  |-7-9-9-9-7-9-9-9-7-9-9-9-----------------|
 B|-5--------5--4--2--------2--6--5-|  |-7-9-9-9-7-9-9-9-7-9-9-9-----------------|
F#|-3--------3--2--0--------0--6--5-|  |-5-7-7-7-5-7-7-7-5-7-7-7-----------------|
C#|----------------------------4--3-|  |-------------------------0-0-0-0-0-0-0-0-|

Riff 3:
C#|-----------------------------------------------------|
G#|-----------------------------------------------------|
 E|-----------------------------------------------------|
 B|-----------------------------------------------------|
F#|---2p0h2p0-----2p0h2p0-----2p0h2p0-------------------|
C#|-0---------2-0---------2-0---------2-0-0-0-0-0-0-0-0-|

Main Riff:
C#|---------------------------------------------------------|
G#|---------------------------------------------------------|
 E|---------------------------------------------------9-7-9-|
 B|---------------------------------------------------9-7-9-|
F#|---------------------------------------------------7-5-7-|
C#|-0-0-0-0-0-0-0-0-0-0-0-0-0-0-0-0-0-0-0-0-0-0-0-0-0-------|

Chorus:
C#|------------------------------------------------|
G#|------------------------------------------------|
 E|-5--------5--4--2--------2----------------------|
 B|-5--------5--4--2--------2--6--5--------5--4--2-|
F#|-3--------3--2--0--------0--6--5--------5--4--2-|
C#|----------------------------4--3--------3--2--0-|

Solo:
C#|-12p9h12p9h12p9h12p9h12p9h12p9h12p9h12p9----------------------------------------|
G#|----------------------------------------12p9h12p9h12p9h12p9h12p9h12p9h12p9h12p9-|
 E|--------------------------------------------------------------------------------|
 B|--------------------------------------------------------------------------------|
F#|--------------------------------------------------------------------------------|
C#|--------------------------------------------------------------------------------|

C#|-----------------------------------------------------------------------15^-|
G#|------------------------------------------------------------15^--15-12-----|
 E|-12p10h12p10h12p10h12p10h12p10h12p10h12p10h12p10-15^--15-12----------------|
 B|---------------------------------------------------------------------------|
F#|---------------------------------------------------------------------------|
C#|---------------------------------------------------------------------------|

C#|--------------------------------------------------------|
G#|--------------------------------------------------------|
 E|-14^\---------------------------------------------------|
 B|---------9-9-----9-9-----9-9-----9-9-----9--------------|
F#|---------7-7-----7-7-----7-7-----7-7-----7--\xxxxxxxx\--|
C#|-------------0-0-----0-0-----0-0-----0-0----\xxxxxxxx\--|

Main Riff:
C#|---------------------------------------------------------|
G#|---------------------------------------------------------|
 E|---------------------------------------------------9-7-9-|
 B|---------------------------------------------------9-7-9-|
F#|---------------------------------------------------7-5-7-|
C#|-0-0-0-0-0-0-0-0-0-0-0-0-0-0-0-0-0-0-0-0-0-0-0-0-0-------|

Chorus:
C#|------------------------------------------------|
G#|------------------------------------------------|
 E|-5--------5--4--2--------2----------------------|
 B|-5--------5--4--2--------2--6--5--------5--4--2-|
F#|-3--------3--2--0--------0--6--5--------5--4--2-|
C#|----------------------------4--3--------3--2--0-|

Outro:
C#|--------------------------------------------------------------|
G#|--------------------------------------------------------------|
 E|-9--------7--------5--------7--------9--------9--9--9--9-9-9--| X2
 B|-9--------7--------5--------7--------9--------9--9--9--9-9-9--|
F#|-7--------5--------3--------5--------7--------7--7--7--7-7-7--|
C#|--------------------------------------------------------------|

| /  slide up
| \  slide down
| h  hammer-on
| p  pull-off
| ~  vibrato
| +  harmonic
| x  Mute note
| ^  Bend
===============================================================================
Composição de Conrad Lant / Jeff Dunn / Tony Bray
36 exibições
    • ½ Tom
    • A
    • Bb
    • B
    • C
    • Db
    • D
    • Eb
    • E
    • F
    • F#
    • G
    • Ab
  • Adicionar à lista

    0 comentários

    Ver todos os comentários

    Conseguiu tocar?

    0 Tocaram 0 Ainda não

    Grave um vídeo tocando Witching Hour e nos envie!

    00:00 / 00:00
    Outros vídeos desta música
    Repetir Qualidade Automático
    Outros vídeos desta música
    00:00 / 00:00
    Automático

    Cifra Club Pro

    Aproveite o Cifra Club com benefícios exclusivos e sem anúncios
    Cifra Club Pro
    Aproveite o Cifra Club com benefícios exclusivos e sem anúncios
    OK