Enviar cifraEntrar

Jóia Rara

Vida Reluz

Cifra: Principal
exibições 103.360
Tom: F
(intro) (esta base é feita junto com o solo)
( C7/9   F7M Bb7M Am7 Cm7 F7 Bb7M Am7 Cm7 F7 Bb7M Am7 D7 Bb7M Gm7 C/D F/G )


E|--------------------------10--------------]
B|-----13-11-10----------------13-11-10-13--]
G|--------------12-10-10-10-----------------]
D|--10--------------------------------------]
A|------------------------------------------]
E|------------------------------------------]


E|-----------------------10-10-13/15-13-12----]
B|--------------10-11-13-------------------13-]
G|--------10-12-------------------------------]
D|--10-12-------------------------------------]
A|--------------------------------------------]
E|--------------------------------------------]


E|-----------------------12/13-------10--]
B|-----10-11-10----------------13-10-----]
G|--12----------12-10-10-----------------]
D|---------------------------------------]
A|---------------------------------------]
E|---------------------------------------]


E|--------------------------------------------]
B|-10-10-11-13-10-------------------------13--]
G|----------------10-10----10-10----10--------]
D|----------------------12-------12----12-----]
A|--------------------------------------------]
E|--------------------------------------------]


 C                       F
Este é o momento da mais pura doação
    C                      G             G#°
de quem sabe amar como ninguém jamais amou
 Am              F        Dm                    G
Ele nos da sua vida, seu plano de amor nos revela
 C             F       C                  G   G#°
É alimento da alma, o pão que desceu do céu
   Am                      F               G       C
nos da o seu corpo e seu sangue,para nossa comunhão
Gm C7   F            G/F
     Jesus tu és a jóia mais rara,
G#°              Am       Am/G F Dm
fonte de vida que não se acaba,  te entrego todo meu
   G           C  Gm C7
ser,em gratidão
    F                   G/F       G#°         Am Am/G
permanece em mim com teu amor, teu amor infinito
F  Dm              G        C
   sela em mim  a tua salvação

(volta  ao início)
  • 1
  • 2
  • 3
  • 4
  • 5
  • 6
  • 7
  • 8
  • 9
  • 10
  • 11
  • 12
    Acordes para:
      Colaboração e revisão:

      0 comentários

        mostrar mais comentários

        Conseguiu tocar?

        4tocaram0ainda não

        Grave um vídeo tocando Jóia Rara e mande pra gente!

        00:00 / 00:00
        outros vídeos desta música
        repetirqualidadeautomática
        • automática
        Outro vídeos desta música
          00:00 / 00:00
          automática
          • automática
          Acordes para:violão e guitarra
          dificuldadeexibiçõescontribuições
          fecharplay/pause subir/descer velocidade
            acordes
            fechar
            OK
            Feedback