Cifra Club

Still of the Night

Whitesnake

Cifra: Versão 2 (violão e guitarra)
tom: G
|----------------|------------|---------------|----------------------|
|----------------|------------|---------------|----------------------|
|----x-----------|------------|---------------|--------------/11-11--|
|----x---------4-|-(4)--------|-(4)---------4-|-(4)------(4)---------|
|----x---------4-|-(4)--------|-(4)---------4-|-(4)------(4)---------|
|------19\\---0-2-|-(2)--------|-(2)-------0-2-|-(2)------(2)---------|
1st Verse
~
|-----------------||---------|------------|-----|
|-----------------||---------|------------|-----|
|-9---x-----------||---------|------------|-----|
|-----x---------4-||---------|----------4-|-----|
|-----x---------4-||---------|----------4-|-----|
|-------19\\---0-2-||---------|--------0-2-|-----|
PM| PM--| PM--|
|--------------|---------------------------------|----------------------|
|--------------|---------------------------------|---------------5--4---|
|--------------|-2-------------------------------|---------------4--4---|
|--------------|-2-------------------------------|-------4-------2--4---|
|--------2-3-4-|---3-2p0-2p0-----2h3p2p0-2p0-----|---------------2--2---|
|--------------|-------------2-0-------------2p0-|-2-2-2---2-2-0-0------|
PM| PM--| PM--|
|---------------------------------|---------------------|------|
|---------------------------------|---------------4--2--|------|
|---------------------------------|---------------4--2--|------|
|---------------------------------|-------4-------4--2--|-4----|
|-0-3p2p0-2p0-----2h3p2p0-2p0-----|---------------2--0--|-4----|
|-------------2-0-------------2p0-|-2-2-2---2-2-0-------|-2----|
~~~~~ PM|
|---------------------------|--------------|---------------------------------|
|-----------17-17b19==(17)r-|--------------|---------------------------------|
|---------------------------|--------------|-2-------------------------------|
|-(4)-----------------------|--------------|-2-------------------------------|
|-(4)-----------------------|--------2-3-4-|---3-2p0-2p0-----2h3p2p0-2p0-----|
|-(2)--------0----------2---|--------------|-------------2-0-------------2p0-|
PM--| PM--| PM| PM--| PM--|
|---------------------|---------------------------------|---------------------|
|---------------5--4--|---------------------------------|---------------4--2--|
|---------------4--4--|---------------------------------|---------------4--2--|
|-------4-------2--4--|---------------------------------|-------4-------4--2--|
|---------------2--2--|-0-3p2p0-2p0-----2h3p2p0-2p0-----|---------------2--0--|
|-2-2-2---2-2-0-0-----|-------------2-0-------------2p0-|-2-2-2---2-2-0-------|
$
PM--| PM PM--| PM--| PM PM--| ~~~~~~
|-------------------------|-----------------------------|
|-------------------------|-----------------------------|
|--------9----------9-----|--------9----------/9s7-(7)--|
|--------9----------9-----|--------9----------/9s7-(7)--|
|--------7----------7-----|--------7----------/7s5-(5)--|
|--0-0-0---0--0-0-0---0---|--0-0-0---0--0-0-0-----------|
PM--| PM PM--| PM

|------------------------------|
|------------------------------|
|-(7)-------9----------9-------|
|-(7)-------9----------9-------|
|-(5)-------7----------7-------|
|-----0-0-0---0--0-0-0---0-----|
PM--| PM------| ~~~~~~
|------------------------------||
|------------------------------||
|--------9-----------/9s7-(7)--||
|--------9-----------/9s7-(7)--||
|--------7-----------/7s5-(5)--||
|--0-0-0---0-0-0-0-0-----------||
Pre-Chorus
PM----| PM----| PM----|
|-----------------------|----------------------------|
|-----------------------|----------------------------|
|-2----------2----------|-2----------2-2-------------|
|-2----------2----------|-2----------2-2-------------|
|-0----------0----------|-0----------0-0-5p2p0-------|
|----5-0-3-0----3-0-3-0-|----5-0-3-0-----------3p0---|
To Coda
2/4 4/4
PM----|
|-------------------|-------|----------|------------------||
|-------------------|----0--|----------|------------------||
|-4----------4------|-2--0--|-0--------|-(0)----(0)-------||
|-4----------4--x\\--|-2--0--|-3--------|-(3)----(3)-x\\----||
|-2--0---0---2--x\\--|-0-----|-3--------|-(3)----(3)-x\\----||
|------2---2----x\\--|----3--|-1--------|-(1)----(1)-x\\----||
Chorus
PM--| PM-----| PM PM--| PM PM--| ~~~~~~~~
|-------------------------|----------------------------|
|-------------------------|----------------------------|
|--------9----------9-----|--------9----------9-7-(7)--|
|--------9----------9-----|--------9----------9-7-(7)--|
|--------7----------7-----|--------7----------7-5-(5)--|
|--0-0-0---0--0-0-0---0---|--0-0-0---0--0-0-0----------|
~~~~~PM--| PM PM--| PM
|------------------------------|
|------------------------------|
|-(7)-------9----------9-------|
|-(7)-------9----------9-------|
|-(5)-------7----------7-------|
|-----0-0-0---0--0-0-0---0-----|
PM--| PM PM--| PM PM--| PM PM--|
|-------------------------|-----------------------------------||
|-------------------------|-----------------------------------||
|--------9----------9-----|--------9----------9-7-(7)---------||
|--------9----------9-----|--------9----------9-7-(7)-------0-||
|--------7----------7-----|--------7----------7-5-(5)-0h2h3---||
|--0-0-0---0--0-0-0---0---|--0-0-0---0--0-0-0-----------------||
PM|

|---------------------------------|
|---------------------------------|
|---------------------------------|
|-2-------------------------------|
|---3p2p0-2p0-----2h3p2p0-2p0-----|
|-------------2-0-------------2-0-|
PM--| PM--| PM| PM--| PM--|
|-------2-------------|---------------------------------|---------------------||
|-------2-------5--4--|---------------------------------|---------------4--2--||
|---------------4--4--|---------------------------------|---------------4--2--||
|---------------2--4--|---------------------------------|-------4-------4--2--||
|---------------2--2--|-0-3p2p0-2p0-----2h3p2p0-2p0-----|---------------2--0--||
|-2-2-2---2-2-0-0-----|-------------2-0-------------2p0-|-2-2-2---2-2-0-------||
2nd Verse
|----------|---------------|---------|---------------|
|----------|---------------|---------|---------------|
|----------|---------------|---------|---------------|
|-4--------|-(4)---------4-|---------|------x-x------|
|-4--------|-(4)---------4-|---------|------x-x------|
|-2--------|-(2)-------0-2-|---------|------x-x-x\\---|
PM--| PM PM--| PM--| PM PM--| ~~~~~~
|-------------------------|-----------------------------|
|-------------------------|-----------------------------|
|--------9----------9-----|--------9----------/9s7-(7)--|
|--------9----------9-----|--------9----------/9s7-(7)--|
|--------7----------7-----|--------7----------/7s5-(5)--|
|--0-0-0---0--0-0-0---0---|--0-0-0---0--0-0-0-----------|
PM--| PM PM--| PM
|------------------------------|
|------------------------------|
|-(7)-------9----------9-------|
|-(7)-------9----------9-------|
|-(5)-------7----------7-------|
|-----0-0-0---0--0-0-0---0-----|
PM--| PM------| ~~~~~~~~~~~~~~ ~
|------------------------------|-----------------|-----------------|
|------------------------------|-----------------|-----------------|
|--------9-----------/9s7-(7)--|----------7--x\\--|-5-------5---4p0-|
|--------9-----------/9s7-(7)--|----------7--x\\--|-5-------5-0-5---|
|--------7-----------/7s5-(5)--|-5--5-7s9-9--x\\--|-3---5s7-7-------|
|--0-0-0---0-0-0-0-0-----------|-----------------|-----------------|
PM| PM ~
|------------------------|----------|------------|------|
|----------7-----5-------|----------|------------|------|
|-----5-2--7---0-5-------|-0--------|-(0)--------|------|
|-----5-2--7---0-5-------|-3--------|-(3)--------|-2----|
|-0-0-3-0----0-----------|-3--------|-(3)--------|-2----|
|-------------------15\\--|-1--------|-(1)--------|-0----|
Interlude
Emadd9 Cmaj7/F
Gtr IV
| |
/ /
\\2.5


|-----------------|------------|---------------||-----|
|-----------------|------------|---------------||-----|
|-----------------|------------|---------------||-----|
|-----------------|------------|---------------||-----|
|-----------------|------------|---------------||-----|
|-(0)------(0)----|-(0)--------|-(0)----(0)----||-----|
Emadd9
| | | | | |
/ / / / / /
\\1/ \\0.5/
|----------------------|-------------|----------|------------|---------|-----|
|--------------8p======|=7-----7-----|-7--------|-(7)--------|---------|-----|
|--------7-(7)---------|-------------|----------|------------|---------|-----|
|--5s==9---------------|-----9-----9-|----------|------------|---------|-----|
|----------------------|-------------|----------|------------|---------|-----|
|----------------------|-------------|----------|------------|---------|-----|
Cmaj7/F Emadd9
| | | | |
/ / / / /
|--------------|--------------3---|------------|---------|-----|
|----8-(8)-8---|-(8)\\-------5-----|------------|---------|-----|
|----------7---|-(7)\\--7s=5-----5-|-(5)--------|---------|-----|
|--------------|------------------|------------|---------|-----|
|--------------|------------------|------------|---------|-----|
|--------------|------------------|------------|---------|-----|
Em7
| | | |
/ / / /
|----------------|-------------------|----------------|-----------------|
|------7-8-7---7-|-(7)----10-(10)----|------7-8-7---7-|-(7)-------------|
|--7-------------|-----7-------------|------------7---|-----7-----------|
|----9-------9---|-------------------|----9-----------|--------7-(7)----|
|----------------|-------------------|--7-------------|-----------------|
|----------------|-------------------|----------------|-----------------|
Cadd2 Em7
| | | |
/ / / /
|------0-(0)------|-----------------|----------------|----------|
|------------3----|-----------------|----0---------0-|-----0----|
|----0----------5-|-(5)-4--0-(0)----|--------0-------|----------|
|--4--------------|-----------------|------4---4-----|-4--------|
|-----------------|-----------------|--7-------------|---7------|
|-----------------|-----------------|------------7---|----------|
| | | |
/ / / /
|-----------------7-|-(7)---------------|----------------|-----------------|
|-------7-8-7---7---|-------------------|------7-8-7---7-|-(7)-----10------|
|-------------------|-----9p7----7------|----------------|-----7------9----|
|-------------9-----|----------7---7----|----9-------9---|-------7---------|
|-----7-------------|-----------------7-|----------------|-----------------|
|-0-7---------------|-------------------|-0--------------|-----------------|
Cadd2
| |
/ /

|------0-(0)------|----------------|
|------------3----|----------------|
|----5----------5-|-(5)-4---(4)----|
|--5--------------|----------------|
|-----------------|----------------|
|-----------------|----------------|
Em7
| |
/ /
|-----------------|------------------------------||
|---------0-------|-------------------<7>-<7>----||
|-------0---0-----|---------<5>-(<5>)------------||
|-----4-------4-0-|-<5>--------------------------||
|---7-------------|-----<5>----------------------||
|-7---------------|------------------------------||
Strings Interlude
|-------------------------|-------------------------|
|-8-----------7---(7)-----|-8-----------7---(7)-----|
|----------------------7--|----------------------7--|
|-----4-4-5-5-4-4---------|-----4-4-5-5-4-4---------|
|-7-7---------------------|-7-7---------------------|
|-------------------------|-------------------------|
|---------------------|------------------------------------|
|---------------------|------------------------------------|
|---------------------|------------------------------------|
|-----4-4-5-5-4-4-----|-----4-4-5-5-4-4-----4-4-5-5-4-4----|
|-3-3-----------------|-3-3-------------5-5----------------|
|---------------------|------------------------------------|
|---------------------|---------------------|
|---------------------|---------------------|
|-0-0-2-2-4-4-2-2-----|-0-0-2-2-4-4-2-2-----|
|-----4-4-5-5-4-4-----|-----4-4-5-5-4-4-----|
|-7-7-----------------|-7-7-----------------|
|---------------------|---------------------|
|---------------------|------------------------------------|
|---------------------|------------------------------------|
|-0-0-2-2-4-4-2-2-----|-0-0-2-2-4-4-2-2-----2-2-4-4-2-2----|
|-----4-4-5-5-4-4-----|-----4-4-5-5-4-4-4-4-4-4-5-5-4-4----|
|-3-3-----------------|-3-3-------------5-5----------------|
|---------------------|------------------------------------|
|---------------------------------|-----------------------------------|
|---------5-5-----5-5-------------|-----------------------------------|
|-----4-4-----4-4-4-4-4-4-2-2-4-4-|-0-0-2-2-4-4-4---(4)---------------|
|-5-5-4-4-5-5-4-4-----5-5-4-4-5-5-|-----4-4-5-5-4-4-------4-4-5-5-4-4-|
|-7-7-----------------------------|-7-7--------------5--5-------------|
|---------------------------------|-----------------------------------|
|------------------------------------|
|-----------------3-3----------------|
|------------------------------------|
|-----4-4-5-5-4-4-----5-5-4-4-5-5----|
|-3-3--------------------------------|
|------------------------------------|

|---------------------------------|---------------------------------|
|---------------------------------|---------------------------------|
|---------------------------------|-----------------4-4-------------|
|-----4-4-5-5-4-4-----4-4-5-5-4-4-|-----4-4-5-5-4-4-----5-5-4-4-5-5-|
|-3-3-------------5-5-------------|-7-7-----------------------------|
|---------------------------------|---------------------------------|

|------------------------------------|
|------------------------------------|
|------------------------------------|
|-----4-4-5-5-4-4-----4-4-5-5-4-4----|
|-7-7-------------5-5----------------|
|------------------------------------|

|---------------------------------|
|-----------------3-3-------------|
|---------------------------------|
|-----4-4-5-5-4-4-----5-5-4-4-5-5-|
|-3-3-----------------------------|
|---------------------------------|
|

| Gtr II
|---------------------------------|
|---------------------------------|
|---------------------------------|
|---------------------------------|
|---------------------------------|
|---------------------------------|
Interlude (w/ guitars)
~~~~~~~~~~~~~~~~~~ ~
|---------------------------------||----------------------------------|
|---------------------------------||----------------------------------|
|---------------------------------||-9---------7---(7)--------7-------|
|-----4-4-5-5-4-4-----4-4-5-5-4-4-||-9---------7---(7)---9-10-7-------|
|-3-3-------------5-5-------------||----------------------------------|
|---------------------------------||----------------------------------|
|
|---------------------------------||----------------------------------|
|---------------------------------||----------------------------------|
|---------------------------------||----------------4--4--------------|
|---------------------------------||---4-4-5-5-4-4-------5--5-4-4-5-5-|
|---------------------------------||----------------------------------|
|---------------------------------||-0--------------------------------|
~
|-------------------------------|
|-------------------------------|
|------7------------5-----7-----|
|-9-10-7-------9-10-5-----7-4s9-|
|-------------------------------|
|-------------------------------|
|

|-------------------------------|
|-------------------------------|
|-------------------5-----7-----|
|------4-4-5-5------5-4-4-7-----|
|-------------------3-----5-----|
|-0--0---------0--0-------------|
~~~~~~~~~~~~~~~~~~~~
|--------------------------------------|--------------------------|
|-12---------10---(10)-----------------|-10---------10-(10)-------|
|-12---------11---(11)-----------------|--9---------10-(10)-------|
|-12---------12---(12)-----12\\---/9-11-|-11---------10-(10)-------|
|--------------------------------------|---------------------x\\---|
|--------------------------------------|---------------------x\\---|
|
|--------------------------------------|--------------------------|
|--------------------------------------|--------------------------|
|--------------------------------------|------------------------5-|
|----4-4-5-5--4--------4-4--5--5--4--4-|-------------3--(3)-------|
|---------------7---5------------------|--4-7-7-7-7--3--(3)--x\\---|
|--0-----------------------------------|---------------------x\\---|
|-----------------------------|----------------------------|
|-7-------------------8-------|-----7-----------5---7------|
|-9---------7-(7)-----7-------|-----7-----------5---7------|
|-9---------7-(7)-----7-------|-----7-----------5---7-4s12-|
|-7---------5-(5)-------------|----------------------------|
|-----------------0-0---------|-0-0---------0-0------------|

|
|-----------------------------|----------------------------|
|-----------------------------|----------------------------|
|-4---4--------4--------------|----------------------------|
|---4---(4)-4-----4-4-5-5-4-4-|-----4-4-7-7-----5-4-5-4----|
|-----------------------------|-7-7---------7-7------------|
|-----------------------------|----------------------------|
~~ ~~~~
|------------------------------------|
|-12---------10---(10)---------------|
|-12---------11---(11)---------------|
|-12---------12---(12)----------7s11-|
|------------------------------------|
|------------------------------------|
|
|------------------------------------|
|------------------------------------|
|---------------------------7\\-------|
|--------4-4-----------5s7-(7)\\------|
|----7-7------5h7---5----------------|
|------------------------------------|
|----------------------------|---------------------------------|
|-10-10----10-9-(9)----------|-7-7-------7-(7)------8----------|
|--9--9-----9-9-(9)----------|-9-9-------7-(7)------7----------|
|-11-11-11----9-(9)----------|-9-9-------7-(7)------7----------|
|-------------------/16------|-7-7-------5-(5)-----------------|
|-----------------------16\\--|-7-7---0-0-------0-0-------------|
|

|----------------------------|---------------------------------|
|----------------------------|---------------------------------|
|----------------------------|--------------4--x-x-[7]b9r([7])-|
|----------------------------|---------5-4-----x-x-------------|
|--4--4--7--7-7-(7)----------|-2-2-4-5-------------------------|
|----------------------------|---------------------------------|
|-----------------------------------------||
|-----------7------------5----7-----------||
|-----------7------------5----7-----------||
|-----------7------------5----7-4s==12----||
|-----------------------------------------||
|---0---0--------0--0---------------------||
|
| \\2 \\2
|-----------------------------------------||
|-----------------------------------------||
|-([7])---([7])------------------------4--||
|------------------[7]-([7])----4h5h=7----||
|-----------------------------------------||
|-----------------------------------------||
Guitar Solo
|---------------------7--------------------------------14-17-14----------|
|-------------------7---8p7---10-----12p10-12h13h15-17----------17-15-13-|
|-----------5-6h7h9---------9----9p7-------------------------------------|
|-5p0-5h7h9--------------------------------------------------------------|
|------------------------------------------------------------------------|
|------------------------------------------------------------------------|

|-------14-15-17-19----------15-17-19-20-17-16-19-17-15----17-15-------14-------------------------------14--|
|-15-17-------------15-17-19----------------------------19-------19-17----17-15----17-------12s13-15-17-----|
|-------------------------------------------------------------------------------17----14s12-----------------|
|-----------------------------------------------------------------------------------------------------------|
|-----------------------------------------------------------------------------------------------------------|
|-----------------------------------------------------------------------------------------------------------|

/0.5____\\0.5____/0.5____\\0.5 /0.5____\\0.5____/0.5____\\0.5
|-15-17b19-(17)----(17)----(17)----(17)---(17)----(17)----(17)----(17)---17----|-----20b22r(20)-22-(22)b24==(22)r(22)b24-(22)-|
|---------------------------------------------------------------------------17-|-(17)-----------------------------------------|
|------------------------------------------------------------------------------|----------------------------------------------|
|------------------------------------------------------------------------------|----------------------------------------------|
|------------------------------------------------------------------------------|----------------------------------------------|
|------------------------------------------------------------------------------|----------------------------------------------|

|-22b24-(22)-22b24-(22)-22b24-(22)-22b24==(22)r(22)b24-(22)-22b24==(22)r(22)b24-(22)-|
|------------------------------------------------------------------------------------|
|------------------------------------------------------------------------------------|
|------------------------------------------------------------------------------------|
|------------------------------------------------------------------------------------|
|------------------------------------------------------------------------------------|

|-22b24==(22)r(22)b24-(22)-22b24-(22)-22b24-(22)-22b24-(22)-22b24-(22)-22b24-(22)-22b24-(22)-22b24-(22)-22b24-(22)-||
|------------------------------------------------------------------------------------------------------------------||
|------------------------------------------------------------------------------------------------------------------||
|------------------------------------------------------------------------------------------------------------------||
|------------------------------------------------------------------------------------------------------------------||
|------------------------------------------------------------------------------------------------------------------||
PM|
|-22b24\\--------------------------------|
|---------------------------------------|
|---------------------------------------|
|---------------------------------------|
|--0-----3p2-0-2p0-----2h3p2p0-2p0------|
|------------------2-0-------------2p0--|
PM--| PM--| PM| PM--| PM--|
|---------------------|---------------------------------|---------------------||
|---------------5--4--|---------------------------------|---------------4--2--||
|---------------4--4--|---------------------------------|---------------4--2--||
|-------4-------2--4--|---------------------------------|-------4-------4--2--||
|---------------2--2--|-0h3p2p0-2p0-----2h3p2p0-2p0-----|---------------2--0--||
|-2-2-2---2-2-0-0-----|-------------2-0-------------2p0-|-2-2-2---2-2-0-------||
3rd Verse
D.S. al Coda
|----------|---------------|---------|---------------||
|----------|---------------|---------|---------------||
|----------|---------------|---------|---------------||
|-4--------|-(4)---------4-|---------|------x-x------||
|-4--------|-(4)---------4-|---------|------x-x------||
|-2--------|-(2)-------0-2-|---------|------x-x-x\\---||
Outro
&
|----------|---------------||-----------|---------------|
|----------|---------------||-5------7--|-5-------5--0--|
|-0--------|-(0)-----------||-4------7--|-5-------5--0--|
|-3--------|-(3)----xs=x\\--||-2------7--|-5-------5--0--|
|-3--------|-(3)----xs=x\\--||-2------5--|-3---5s7-------|
|-1--------|-(1)----xs=x\\--||-0---------|---------------|
|-----------|----------------|-----------|---------------|
|--------0--|----------------|-5------7--|-5-------5--0--|
|-2------0--|-2---0-0--------|-4------7--|-5-------5--0--|
|-2------0--|-3-------x/-x\\--|-2------7--|-5-------5--0--|
|-0---------|-3-------x/-x\\--|-2------5--|-3---5s7-------|
|--------3--|-1-------x/-x\\--|-0---------|---------------|
|-----------|--------------|----------------|----------------|
|--------0--|--------------|-5-----------3--|-5-------5--0---|
|-2------0--|-2p0---0------|-4-----------2--|-5-------5--0---|
|-2------0--|-3-----3--x\\--|-2---2-2-----0--|-5-------5--0---|
|-0---------|-3-----3--x\\--|-2---2-2--------|-3---5s7--------|
|--------3--|-1-----1--x\\--|-0---0-0-0-2----|----------------|
PM| PM ~

|-------------------------|-1---------|----------------|-----------------|
|-----5h7---5h7-5-5-------|-1---------|-5-----------3--|-5-------5--0----|
|-----5-7---5-7-5-5-------|-2---------|-4-----------2--|-5-------5--0----|
|-----5h7---5h7-5-5-------|-3---------|-2---2-2-----0--|-5-------5--0----|
|-0-0-----0---------------|-3---------|-2---2-2--------|-3---5s7---------|
|--------------------15\\--|-1-------0-|-0---0-0-0-2-2--|-----------------|
PM| PM ~
|-------------------------|-1-1-1-1--1-1-1-1--1-1-1---||--------------------|
|-----5h7---5h7-5-5-------|-1-1-1-1--1-1-1-1--1-1-1---||o---------------8---|
|-----5-7---5-7-5-5-------|-2-2-2-2--2-2-2-2--2-2-2---||--9----7-7-(7)--7---|
|-----5h7---5h7-5-5-------|-3-3-3-3--3-3-3-3--3-3-3---||--9----7-7-(7)--7---|
|-0-0-----0---------------|-3-3-3-3--3-3-3-3--3-3-3-x-||o-7----5-5-(5)--5---|
|--------------------15\\--|-1-1-1-1--1-1-1-1--1-1-1-x-||--0--0--------------|
~~ ~~~~~~
4x
|---------------|---------------|-1-1-1-1--1-1-1-1--1-1-1----||
|-7---5-(5)--7--|-5---3-(3)--5--|-1-1-1-1--1-1-1-1--1-1-1---o||
|-7---5-(5)--7--|-5---4-(4)--5--|-2-2-2-2--2-2-2-2--2-2-2----||
|-7---5-(5)--7--|-5---5-(5)--5--|-3-3-3-3--3-3-3-3--3-3-3----||
|-5---3-(3)-----|-0---0-(0)--0--|-3-3-3-3--3-3-3-3--3-3-3-x-o||
|------------7--|---------------|-1-1-1-1--1-1-1-1--1-1-1-x--||

00:00 / 00:00
Outros vídeos desta música
Repetir
Outros vídeos desta música
Composição de David Coverdale / John Sykes
Colaboração e revisão:
  • ELOIR FILHO
2.736 exibições
    • ½ Tom
    • A
    • Bb
    • B
    • C
    • Db
    • D
    • Eb
    • E
    • F
    • F#
    • G
    • Ab
  • Adicionar à lista

    0 comentários

    Ver todos os comentários

    Conseguiu tocar?

    0 Tocaram 0 Ainda não

    Grave um vídeo tocando Still of the Night e nos envie!

    00:00 / 00:00

    Cifra Club Pro

    Aproveite o Cifra Club com benefícios exclusivos e sem anúncios
    Cifra Club Pro
    Aproveite o Cifra Club com benefícios exclusivos e sem anúncios
    OK