Cifra Club

No vuelvo más

Ximena Sariñana

Cifra: Principal (violão e guitarra)
Selo Cifra Club: esta cifra foi revisada para atender aos critérios oficiais da nossa Equipe de Qualidade.
tom: D
INTRO:
                                                                x3
E|---------------------------------------5p0-----------------0--------|
B|-----------0----2p0--2p0--0---------------3--------3--------3-----|
G|--------0---------------------------2----------2--1-----1--------1--|
D|-----0-----0----2p0--2p0--0----0----------------------------------|
A|--------------------------------------------------------------------|
E|--3-----------------------------------------------------------------|

E|------------------------------------------------0-----3-----|
B|-----------0----2p0--2p0--0---------2-----3-----2-----2-----|
G|--------0---------------------------2-----2-----0-----0-----|
D|-----0-----0----2p0--2p0--0---------2-----0-----2-----2-----|
A|------------------------------------4-----------------0-----|
E|--3---------------------------------------------------------|


D         D/F#        G          A7
He perdido el sentido de seguir buscando
D             D/F#        G       A7/G
El pedazo que quedó desubicado
D                       D/F#        G                A7
Porque sé que si lo encuentro no podré guardar silencio
D                 D/F#           G
Y sabrás que siendo entera tengo miedo.

Em                    C7
Si descubro que no siento
    Bm7             E7
Que la pasión me abandonó
Em           A        Bm7     Bm7/A
Nunca supe usar la razón
Em                    C7
Soy atracción de pasajero
Bm7             E7
Mañana me olvidarán
Em               A7
Y la historia sigue...

D         Cadd2   Bm7       Cadd2
Dame un momento, dame un lugar
D         Cadd2                    Bm7
Sé que si me voy, me voy, me voy, me voy
          Cadd2
No vuelvo más
D         Cadd2   Bm7       Cadd2
Dame sentimiento, hazme especial
D         Cadd2                    Bm7
Sé que si me voy, me voy, me voy, me voy
          Cadd2
No vuelvo más

  Em7         A7
Y quizá recordarás...


D          D/F#         G          A7
Dicen que la vida de un hombre acompañado
D                  D/F#           G       A7/G
Se recuerda más que al hombre solitario.

Em                    C7
Pero si dejo de perderme
Bm7             E7
Y llega la felicidad
Em           A        Bm7     Bm7/A
Sé que no podría aguantar
Em                    C7
Sólo los genios permanecen
Bm7             E7
Mañana me olvidarás
Em             A7
y la historia sigue...

D         Cadd2   Bm7       Cadd2
Dame un momento, dame un lugar
D         Cadd2                    Bm7
Sé que si me voy, me voy, me voy, me voy
          Cadd2
No vuelvo más
D         Cadd2   Bm7       Cadd2
Dame sentimiento, hazme especial
D         Cadd2                    Bm7
Sé que si me voy, me voy, me voy, me voy
          Cadd2
No vuelvo más

  Em7         A7
Y quizá recordarás...
00:00 / 00:00
Outros vídeos desta música
Repetir
Outros vídeos desta música
317 exibições
    • ½ Tom
    • A
    • Bb
    • B
    • C
    • Db
    • D
    • Eb
    • E
    • F
    • F#
    • G
    • Ab
  • Adicionar à lista

Afinação da cifra

Afinador online

    0 comentários

    Ver todos os comentários

    Entre para o Cifra Club PRO

    Tenha acesso a benefícios exclusivos no App e no Site

    • Chega de anúncios

    • Mais recursos no app do Afinador

    • Atendimento Prioritário

    • Aumente seu limite de lista

    • Ajude a produzir mais conteúdo

    00:00 / 00:00

    Cifra Club Pro

    Aproveite o Cifra Club com benefícios exclusivos e sem anúncios
    Cifra Club Pro
    Aproveite o Cifra Club com benefícios exclusivos e sem anúncios
    OK