Cifra Club

A Terceira Lâmina

Zé Ramalho

Cifra: Principal
exibições 485.892
Tom: D
Intro: Bm C#m5-/7 D7+ Em Bm F#7 Bm

           C#m5-/7                    D7+
É aquela que fere, que virá mais tranqüila
               Em                   Bm
Com a fome do povo, com pedaços da vida
              A                       G#°               F#7
Com a dura semente, que se prende no fogo de toda multidão
                             Bm
Acho bem mais do que pedras na mão
               C#m5-/7               D7+
Dos que vivem calados, pendurados no tempo
               Em                      Bm
Esquecendo os momentos, na fundura do poço,
                F#7                      Bm
Na garganta do fosso, na voz de um cantador

             C#m5-/7              D7+
E virá como guerra, a terceira mensagem,
           Em                    Bm
Na cabeça do homem, aflição e coragem
             A                   G#º                       F#7
Afastado da terra, ele pensa na fera, que o  começa a devorar
                             Bm
Acho que os anos irão se passar
               C#m5-/7          D7+
Com aquela certeza, que teremos no olho
              Em                   Bm                  F#7
Novamente a idéia , de sairmos do poço da garganta do fosso
                  Bm
(na voz de um cantador)(4x)

E|--------------------------------------------------7-7-7-7---|
B|-3-3-3-3-2-5----5-5-5-5-3-7----7-7-7-7-5-8----5-5--------7--|
G|------------------------------------------------------------|
D|------------------------------------------------------------|
A|------------------------------------------------------------|
E|------------------------------------------------------------|

E|-----7-7-7-6----6-7-9-7-6-7---------------------------------|
B|-7-7--------------------------------------------------------|
G|------------------------------------------------------------|
D|------------------------------------------------------------|
A|------------------------------------------------------------|
E|------------------------------------------------------------|
Acordes para:

    0 comentários

      mostrar mais comentários

      Conseguiu tocar?

      26tocaram1ainda não

      Grave um vídeo tocando A Terceira Lâmina e mande pra gente!

      00:00 / 00:00
      outros vídeos desta música
      repetirqualidadeautomática
      Outro vídeos desta música
        00:00 / 00:00
        automática
        OK