Cifra Club

Out Of My Limit (tab Solo)

5 Seconds Of Summer

Cifra: Principal (violão e guitarra)
tom: G
E|--------------0-0----------------------------------------------------------|
B|---/2-2-2-2-2-----0-0-0-0-0-0-----0-----0----------------------------------|
G|------------------------------2-----2-----2--------------------------------|
D|--------------------------------2-----2-----4-2----------------------------|
A|------------------------------------------------2--------------------------|
E|---------------------------------------------------------------------------|

E|------------------------------------0--------------------------------------|
B|---5---------------------------7------2-0----------------------------------|
G|-----6p4---(those 2 parts x8)-------------2-------------------2/-----------|
D|--------------------------------------------4-2-----------2-4--------------|
A|------------------------------------------------4-2-0-2-4------------------|
E|---------------------------------------------------------------------------|

00:00 / 00:00
Outros vídeos desta música
Repetir
Outros vídeos desta música
Compositor não encontrado.
Colaboração e revisão:
  • Victor Aguiar
1.490 exibições
    • ½ Tom
    • A
    • Bb
    • B
    • C
    • Db
    • D
    • Eb
    • E
    • F
    • F#
    • G
    • Ab
  • Adicionar à lista

    0 comentários

    Ver todos os comentários

    Conseguiu tocar?

    0 Tocaram 0 Ainda não

    Grave um vídeo tocando Out Of My Limit (tab Solo) e nos envie!

    Entre para oCifra Club PRO

    Tenha acesso a benefícios exclusivos no App e no Site

    • Chega de anúncios

    • Prioridade de compra em lançamentos

    • Mais recursos no app do Afinador

    • Atendimento Prioritário

    • Descontos nos produtos Cifra Club

    • Ajude a produzir mais conteúdo

    00:00 / 00:00

    Cifra Club Pro

    Aproveite o Cifra Club com benefícios exclusivos e sem anúncios
    Cifra Club Pro
    Aproveite o Cifra Club com benefícios exclusivos e sem anúncios
    OK