Cifra Club

Aprenda

Girls of Summer

Aerosmith

Cifra: Principal (violão e guitarra)
tom: G
[Intro]

E|--2--0------3--2-------------|
B|---3--3------3--3------------|
G|----2--2------2--3-----------|
D|-----------------------------|
A|-----------------------------|
E|-----------------------------|

     G
When winter hush turns summer pink
In half the time it takes to blink
       Am                  Cm    
But it all depends on what'choo think
  G
About the girls of summer
     G
When all you think of all day long
Is a pretty face inside a song
       Am                  Cm
With a thought like that you can't go wrong
  G 
About the girls of summer
Bb
Oh yeah... (Do you know... everybody knows now)

[Refrão]

D              Bm
Some girls are all about it
G              Em
Some girls they love to let it fly
D              Bm
Some girls can't live without it
G              Em                   G
Some girls are born to make you cry        
Bb
Over & over again

E|--2--0------3--2-------------|
B|---3--3------3--3------------|
G|----2--2------2--3-----------|
D|-----------------------------|
A|-----------------------------|
E|-----------------------------|

   G              
My favorite thing that drives me wild
Is when a city girl walks a country mile
      Am                Cm
For a boy she loves God bless the child
   G
Inside the girls of summer
Bb
Oh yeah... (Do you know... everybody knows now)

[Refrão]

D              Bm
Some girls are all about it
G              Em
Some girls they love to let it fly
D              Bm
Some girls can't live without it
G              Em                  G
Some girls are born to make you cry
        Bb
Yeah... over & over again   

E|--2--0------3--2-------------|
B|---3--3------3--3------------|
G|----2--2------2--3-----------|
D|-----------------------------|
A|-----------------------------|
E|-----------------------------|
        
Yeah... yeah... yeah... yeah... yeah
Bb                              
They get'choo climbin' the walls
C5
They get'choo caught in their spell
G
They get'choo speakin' in tongues
D
Could this be Heaven or Hell
Bb
To fall in love twice a day
C5                       G
Is such a sweet place to be
A5
Sevou'ple

    G
The best things about life are free
The pussywillow up your tree
    Am                Cm
To the one who climbs
                      G
They'll always be the girl... yeah

D              Bm
Some girls are all about it
G              Em
Some girls they love to let it fly
D              Bm
Some girls no doubt about it
G              Em
Some girls are born to make you cry

G               Em
Some girls can't live without it
G                Em               
Some girls got twenty reasons why

E|--2--0------3--2-------------|
B|---3--3------3--3------------|
G|----2--2------2--3-----------|
D|-----------------------------|
A|-----------------------------|
E|-----------------------------|

E|--2--0------3--2-------------|
B|---3--3------3--3------------|
G|----2--2------2--3-----------|
D|-----------------------------|
A|-----------------------------|
E|-----------------------------|

( Bb  C5 )

[Final]

E|-------------------------|
B|-------------------------|
G|5b--5p0----7/9-----------|
D|-------------------------|
A|-------------------------|
E|-------------------------|
Composição de Joe Perry / Marti Frederiksen / Steven Tyler
Colaboração e revisão:
  • joao imai
  • Fábio Gaioli
75.076 exibições
    • ½ Tom
    • A
    • Bb
    • B
    • C
    • Db
    • D
    • Eb
    • E
    • F
    • F#
    • G
    • Ab
  • Adicionar à lista

    0 comentários

    Ver todos os comentários

    Conseguiu tocar?

    10 Tocaram 1 Ainda não

    Grave um vídeo tocando Girls of Summer e nos envie!

    00:00 / 00:00
    Outros vídeos desta música
    Repetir Qualidade Automático
    Outros vídeos desta música
    00:00 / 00:00
    Automático

    Cifra Club Pro

    Aproveite o Cifra Club com benefícios exclusivos e sem anúncios
    Cifra Club Pro
    Aproveite o Cifra Club com benefícios exclusivos e sem anúncios
    OK