Cifra Club

Corazón Partio

Alejandro Sanz

Cifra: Versão 4 (violão e guitarra)
tom: Ab
SOLO 1 :

-------------------------------------------------------|
--------------6---8---6h8p6----------------------------|
------------------------------3---5---5---5h7----------|
---6---7-----------------------------------------------|
-------------------------------------------------------|
-------------------------------------------------------|

----------------------------------8---9---8------|
------------------------8---11-------------------|
--6p5-------5h7---10-----------------------------|
--------8----------------------------------------|
-------------------------------------------------|
-------------------------------------------------|

------------------------------------6-----------|
--11----8--------11----8------------5-----------|
------------10-------------7h9------3-----------|
------------------------------------------------|
------------------------------------------------|
------------------------------------------------|

--8----9p8p6----8p6p5---6---6----5---5-----|
--4----------------------------------------|
-------------------------------------------|
-------------------------------------------|
-------------------------------------------|
-------------------------------------------|

---0------------------------------------------------------|
---3------------------------------------------------------|
---5------------------------------------------------------|
---4------------------------------------------------------|
---5-----6---6---6---6---6---6---6------------------------|
----------------------------------------------------------|

---------------------------------------------------------|
-----------8--------------------------------7------------|
---7-----------7-----------8----7--------------7---------|
-------7-----------7------------------7-----------7------|
---------------------------------------------------------|
---------------------------------------------------------|

----------------------------------------------------------|
----------------------------------------------------------|
----7----------------5------------------------------------|
---------7-----0------------------------------------------|
----------------------------------------------------------|
----------------------------------------------------------|


SOLO 2:

-----------------------------------------------------------|
--5s6---6s8---8---8---8-----5------------------------------|
-----------------------------------------------------------|
-----------------------------------------------------------|
-----------------------------------------------------------|
-----------------------------------------------------------|

----------------------------------------|
--5---6s8---8---8s10--------------------|
----------------------------------------|
----------------------------------------|
----------------------------------------|
----------------------------------------|

-------------------------------------8-----11----7-------|
-----------------8----10----12---------------------------|
-8---9---11----------------------------------------------|
---------------------------------------------------------|
---------------------------------------------------------|
---------------------------------------------------------|

-----------------7-------------------7-----------------|
--10---8---7----------10---8---7-----------------------|
-------------------------------------------------------|
-------------------------------------------------------|
-------------------------------------------------------|
-------------------------------------------------------|
00:00 / 00:00
Outros vídeos desta música
Repetir
Outros vídeos desta música
Composição de Alejandro Sanz
Colaboração e revisão:
  • benedito neto
33.005 exibições
    • ½ Tom
    • A
    • Bb
    • B
    • C
    • Db
    • D
    • Eb
    • E
    • F
    • F#
    • G
    • Ab
  • Adicionar à lista

    0 comentários

    Ver todos os comentários

    Entre para oCifra Club PRO

    Tenha acesso a benefícios exclusivos no App e no Site

    • Chega de anúncios

    • Prioridade de compra em lançamentos

    • Mais recursos no app do Afinador

    • Atendimento Prioritário

    • Descontos nos produtos Cifra Club

    • Ajude a produzir mais conteúdo

    00:00 / 00:00

    Cifra Club Pro

    Aproveite o Cifra Club com benefícios exclusivos e sem anúncios
    Cifra Club Pro
    Aproveite o Cifra Club com benefícios exclusivos e sem anúncios
    OK