Cifra Club

Aprenda

Brother Acoustic

Alice In Chains

Cifra: Principal (violão e guitarra)
tom: Ab (forma dos acordes no tom de A) Afinação: Eb Ab Db Gb Bb Eb
Intro:
        A7                               |   Riff 1   |
Eb|----0----0---0-0--0---0--0---0--0--0--0----------------------------------------|
Bb|----2----2---2-2--2---2--2---2--2--2--2--3-/-5--3--2---------------------------|
Gb|----0----0---0-0--0---0--0---0--0--0--0--0-/-0--0--0---------------------------| (4x)
Db|----2----2---2-2--2---2--2---2--2--2--2--3-/-5--3--2---------------------------|
Ab|----0----0---0-0--0---0--0---0--0--0--0--0-/-0--0--0---------------------------|
Eb|-------------------------------------------------------------------------------|

Após as 4x da intro, um segundo violão entra sobre a base com:

Solo 1:
Eb|------------------------------------------------------------------------------|
Bb|--------------------------------5^-----------------------------5^------8^-----|
Gb|------------------------------------6^-----------------------------6^---------|
Db|----------------------------5-------------------------------------------------|
Ab|--------------3---5-5/7--------------------------3---5-5/7--------------------|
Eb|------3---5-------------------------------3---5-------------------------------|

Eb|------------------------------------------------------------------|
Bb|--------------------------------5^--------------------------------|
Gb|------------------------------------6^----------------------------|
Db|----------------------------5-------------------------------------|
Ab|--------------3---5-5/7--------------------------3---5-5/7--------|
Eb|------3---5-------------------------------3---5-------------------|

Verso:

A7                   (Riff 1)
Frozen in the place I hide
A7                    (Riff 1)
Not afraid to paint my sky with
A7                       (Riff 1)
Some who say I've lost my mind
A7                      (Riff 1)
Brother try and hope to find

Refrão:
F                           (Riff 1)
You were always so far away
F                  G
I know that pain so don't you run away

Like you used to do

(repete o primeiro riff interio da intro 2x + o resto)

Verso:
A7                   (Riff 1)
Roses in a vase of white
A7                    (Riff 1)
Bloodied by the thorns beside the leaves
A7                    (Riff 1)
That fall because my hand 
A7                     (Riff 1)
Is pulling them hard as I can

Refrão:
F                          (Riff 1)
You were always so far away
F                     G
I know that pain and I won't run away

Like I used to do
A7             (Riff 1)
Like I used to do

Solo:

Eb|-----------------------------------------------5---5-------|
Bb|---------------------------------------------5---5---------|
Gb|----------------5--7-7b8-7----5----5b----5b----------------|
Db|--5h7--7b--5h7-------------------7-----7-------------------|
Ab|-----------------------------------------------------------|
Eb|-----------------------------------------------------------|

Eb|-----------------------------------------------------------|
Bb|-5--8b10--8b--7-5--7b8---5---------------------------------|
Gb|---------------------------7-5--r7b8--7--5-----------------|
Db|-------------------------------------------7-5-7-----------|
Ab|--------------------------------------------------5---3----|
Eb|-----------------------------------------------------------|

Eb|-----------------------------------------------------------|
Bb|-----------------------------------------------------------|
Gb|-----------------------------5--r7b8-7---7b--5--7p6p5--5b--|
Db|-------------------------5-7-------------------------------|
Ab|-5--3b5--3-------3--5h7------------------------------------|
Eb|-----------5-3-5-------------------------------------------|

Eb|-------------------------------------------------------5---|
Bb|--7b8---7b8---------7b8--7b8---------------------------5---|
Gb|--7b8---7b8---7p5----7b8--7b8--7p5-------------------5-----|
Db|------------------7----------------7b---5h7b---5h7---------|
Ab|-----------------------------------------------------------|
Eb|-----------------------------------------------------------|

Eb|-8b10--8-5-------------------------------------------------|
Bb|------------8b10--8b---7--5-7b8-5--------------------------|
Gb|----------------------------------7--5---7b8-7-5-----------|
Db|-------------------------------------------------7-5--5h7--|
Ab|-----------------------------------------------------------|
Eb|-----------------------------------------------------------|

Verso::
(parada nos instrumentos)

Pictures in a box at home

Yellowing and green with mold

So I can barely see your face

Wonder how that color taste

Refrão:
F                          (Riff 1)
You were always so far away
F                 G
I know the way so don't you run away

Like you used to do
A7                (Riff 1)
Like you used to do

(Solo da introdução)
Colaboração e revisão:
  • Arnaldo Badin
  • Rafael Souza
31.118 exibições
    • ½ Tom
    • A
    • Bb
    • B
    • C
    • Db
    • D
    • Eb
    • E
    • F
    • F#
    • G
    • Ab
  • Adicionar à lista

    0 comentários

    Ver todos os comentários

    Conseguiu tocar?

    13 Tocaram 0 Ainda não

    Grave um vídeo tocando Brother Acoustic e nos envie!

    00:00 / 00:00
    outros vídeos desta música
    repetir qualidade Automático
    Outros vídeos desta música
    00:00 / 00:00
    Automático

    Cifra Club Pro

    Aproveite o Cifra Club com benefícios exclusivos e sem anúncios
    Cifra Club Pro
    Aproveite o Cifra Club com benefícios exclusivos e sem anúncios
    OK